PrimaNota.ru - самый крупный в мире бесплатный архив песенных текстов, аккордов, табулатур и нот


Labwrk - Parasite - таба, видео

Регистрация Запомнить меня
Войти через:  Facebook Google Twitter Vk Yandex Mail.ru

Labwrk - Parasite - таба, видео

Печатать
Просмотров: 169
Labwrk - Parasite

A little off now, but will be corrected.

Standard Tuning

Intro/Chorus:
e|---------------------------------|
b|---------------------------------|
G|-5---5-5-3---3-3-5----5-5-5-5----|
D|-5---5-5-3---3-3-5----5-5-5-5----|
A|-3---3-3-1---1-1-3----3-3-3-3----|
E|---------------------------------|

Verse:
e|--------------------|--------------------|
b|--------------------|--------------------|
G|-5-----------5------|-5-----------3------|
D|-5-----------5------|-5-----------3------|
A|-3-----------3------|-5-----------1------|
E|--------------------|--------------------|
Добавлено: 15.04.2012
Другие материалы по этой песне:
  • Аккорды и текст

Страница создана 15.04.2012
http://primanota.ru/labwrk/parasite-chords.htm
Привет, Гость.
Предлагаем пройти революционный курс по гитаре.
Подарок от PrimaNota.Ru, забирай!