PrimaNota.ru - самый крупный в мире бесплатный архив песенных текстов, аккордов, табулатур и нот


Labradford - G - таба, видео

Регистрация Запомнить меня
Войти через:  Facebook Google Twitter Vk Yandex Mail.ru

Labradford - G - таба, видео

Печатать
Просмотров: 163
-------------------------------------------------------------------------------
                             G - Labradford
-------------------------------------------------------------------------------
Tabbed by: David
Email: thischarmingman13@gmail.com

Tuning: Standard

Play Am chord over this. It's a pretty simple song, not a lot going on here.
e|-------------------------------------------------------------------------------|
B|-------0-1------------/5-6\3---------------------------------------------------|
G|---2-0-----------------------4\2-4\2-------------------------------------------|
D|--2-2-2------------------------------------------------------------------------|
A|-0-----------------------------------------------------------------------------|
E|-------------------------------------------------------------------------------|


| /  slide up
| \  slide down
| h  hammer-on
| p  pull-off
| ~  vibrato
| +  harmonic
| x  Mute note
===============================================================================
Добавлено: 08.06.2012
Другие материалы по этой песне:
  • Аккорды и текст

Страница создана 08.06.2012
http://primanota.ru/labradford/g-chords.htm
Привет, Гость.
Предлагаем пройти революционный курс по гитаре.
Подарок от PrimaNota.Ru, забирай!