PrimaNota.ru - самый крупный в мире бесплатный архив песенных текстов, аккордов, табулатур и нот


Labanoon - เชือกวิเศษ - бас-таба, видео

Регистрация Запомнить меня
Войти через:  Facebook Google Twitter Vk Yandex Mail.ru

Labanoon - เชือกวิเศษ - бас-таба, видео

Печатать
Просмотров: 94
Уроки эстрадного вокала в Санкт-Петербурге
-------------------------------------------------------------------------------
                                 เชือกวิเศษ - Labanoon
-------------------------------------------------------------------------------
Tabbed by: Tonkla 
Facebook: Tonkla Kongpha Lavigne

Tuning: Standard

Intro

G|---------------------------------------------------------------------------|
D|---------------------------------------------------------------------------|
A|2--------------5-----------------------------------------------------------|
E|-------------------------------5----------------2--------------------------|          X2

Verse 1,2

G|---------------------------------------------------------------------------|
D|--------------------------------------------------------------------0------|
A|2--------------------------------------------------------------------------|
E|-----------------------2---------------------4------------------------------|          X2

Pre-Chorus

G|---------------------------------------------------------------------------|
D|----------------------------------------------0----------------------------|
A|-2-------------------------------------------------------------------------|
E|-------------2--------------4----------------------------------------------|

G|---------------------------------------------------------------------------|
D|---------------------------------------------------------------------------|
A|-2-------------------------------------------------------------------------|
E|-------------2---------------4---------------4-4---------4-4---------------|

Chorus

G|---------------------------------------------------------------------------|
D|---------------------------------------------------------------------------|
A|-----------------------------------------5---5-----------------------------|
E|-3---3-------------5---5---------------------------------------------------|    X2

G|---------------------------------------------------------------------------|
D|---------------------------------------------------------------------------|
A|-----------------------------------------5-------4--------2---2------------|
E|-3---3-------------5---5---------------------------------------------------|

G|---------------------------------------------------------------------------|
D|---------------------------------------------------------------------------|
A|-----------------------------------------5---5-----------------------------|
E|-3---3-------------5---5---------------------------------------------------|

Brige,Outro

G|---------------------------------------------------------------------------|
D|---------------------------------------------------------------------------|
A|---------------------------------------------------------------------------|
E|-2-2-2-2--4-4-4-4--5-5-5-5--7-7-7-7----------------------------------------|  X2


| /  slide up
| \  slide down
| h  hammer-on
| p  pull-off
| ~  vibrato
| +  harmonic
| x  Mute note
===============================================================================
Добавлено: 22.05.2016
Вам также может быть интересно:
Другие материалы по этой песне:
  • Аккорды и текст

Страница создана 22.05.2016
http://primanota.ru/labanoon/-chords.htm
Привет, Гость.
Предлагаем пройти революционный курс по гитаре.
Подарок от PrimaNota.Ru, забирай!