PrimaNota.ru - самый крупный в мире бесплатный архив песенных текстов, аккордов, табулатур и нот


Laaz Rockit - Shadow Company - таба, видео

Регистрация Запомнить меня
Войти через:  Facebook Google Twitter Vk Yandex Mail.ru

Laaz Rockit - Shadow Company - таба, видео

Печатать
Просмотров: 192
Уроки эстрадного вокала в Санкт-Петербурге
-----------------------------------------------------------------------------
                             Shadow Company-Laaz Rockit
-----------------------------------------------------------------------------
Tabbed by:jtom
Email:jtom2@rmusd.net

Tuning:Standard

 ~ = ring
 . = palm mute
(0.00) = time in song


 (intro) (0.00) (Acoustic) (notes are in order of song)
e|--------------------------------------------------------------------|
B|--------------------------------------------------------------------|
G|----4------4-----4------4------4------4------4------4------4--------|
D|------4------4-----4------4------4------4------4------4------4------|
A|--2-----------------------------------------------------------------|
E|---------3------2-----0------2------3------2------0------2----------|


e|------------------------------|
B|------------------------------|
G|-----4------4------4-----4----|
D|-------4------4------4-----4--|
A|------------------------------|
E|--2-------2-----2------2------|


 (0.10)
e|------------------------------------------------------------------|
B|------------------------------------------------------------------|
G|----4------4-----4------4------4------4------4------4-------------|
D|------4------4-----4------4------4------4------4------4-----------|
A|--2---------------------------------------------------------------|
E|---------3------2-----0------2------3------2------0---------------|

 (0.16)
e|--------------------------------|
B|--------------------------------|
G|----3-------3------3------3-----|
D|------3-------3------3------3---|
A|--------------------------------|
E|--6-------6------6------6-------|


(0.19)
e|------------------------------------------------------------------------|
B|------------------------------------------------------------------------|
G|----4------4-----4------4------4------4------4------4------4------4-----|
D|------4------4-----4------4------4------4------4------4------4------4---|
A|--2---------------------------------------------------------------------|
E|---------3------2-----0------2------3------2------0------2------3-------|


e|-------------|
B|-------------|
G|----4--------|
D|------4~-----|
A|--2----------|
E|-------------|


 (0.29)
e|-----------------------------------------------------|
B|-----------------------------------------------------|
G|-----------------------------------------------------|
D|----4------4------4------4------4------4-------------|
A|------4------4------4------4------4------4-----------|
E|--2------2------2------2------2------2------0-2-3----|


(0.40)
e|------------------------------------------------|
B|------------------------------------------------|
G|----3------3-----3------3------3------3---------|
D|------3------3-----3------3------3------3-------|
A|------------------------------------------------|
E|--6------2------0------2------6-----2------0~---|


 (0.52)
e|---------------------------------------------------------------------|
B|---------------------------------------------------------------------|
G|---------------------------------------------------------------------|
D|----4------4------4------4------4------4-------------4-----4---------|
A|------4------4------4------4------4------4-------------4---4---------|
E|--2------2------2------2------2------2------0-2-3--2-------0---------|


(0.59)
e|---------------------------------------------------|----------|-----------|
B|---------------------------------------------------|----------|-----------|
G|---------------------------------------------------|----------|-----------|
D|--2~----4-4-4--2---4-4-4--2--4-4-4-2-4-5-4-5-4--2--|----------|-----------|
A|--2~----4-4-4--2---4-4-4--2--4-4-4-2-4-5-4-5-4--2--|--8-4--2--|------8-4-2|
E|--0~----2-2-2--0---2-2-2--0--2-2-2-0-2-3-2-3-2--0--|--6-2--0--|-000--6-2-0|
          . . .      . . .     . . . . . . . . .                  ...

I was listening to this song and so i decided to try and tab it out, so here it is. Its 
i know but i will work on it.
Добавлено: 19.07.2012
Другие материалы по этой песне:

Страница создана 19.07.2012
http://primanota.ru/laaz-rockit/shadow-company-chords.htm
Привет, Гость.
Предлагаем пройти революционный курс по гитаре.
Подарок от PrimaNota.Ru, забирай!