PrimaNota.ru - самый крупный в мире бесплатный архив песенных текстов, аккордов, табулатур и нот


Laaz Rockit - Chain Of Fools - таба, видео

Регистрация Запомнить меня
Войти через:  Facebook Google Twitter Vk Yandex Mail.ru

Laaz Rockit - Chain Of Fools - таба, видео

Печатать
Просмотров: 147
                                 Laaz Rockit
                                 "Chain Of Fools"
                                 Annihilation Principle(1989)


Legend:
(0.00)= means time in the song
v = vibrato
~ = let strings ring for a sec
/ = slide
* = important notes
(1x,2x,3x,4x,6x) = means times played
. = palm mute

         Standard Tuning: EADGBE


(0.02)(3x) Clean Electric
|---------0-----------0-------------0-------------0---|
|-----------0-----------0-------------0-------------0-|
|-----------------------------------------------------|
|----4-----------5-------------6-------------7--------|
|--2-----------3-------------4-------------5----------|
|-----------------------------------------------------|


(0.18)(3x) Distortion
|---------------------------------|
|---------------------------------|
|---------------------------------|
|--4------5------6------7---------|
|--2------3------4------5---------|
|----0-00---0-00---0-00---0-00----|
     . ..   . ..   . ..   . ..

(0.32)(4x)
|---------------------------------------------|
|---------------------------------------------|
|---------------------------------------------|
|--4----5----6----7----4----5----6----7~------|
|--2----3----4----5----2----3----4----5~------|
|----00---00---00---00---00---00---00---------|
     ..   ..   ..   ..   ..   ..   ..

(0.52)(3x)
|-----------------------------------------------------------|
|-----------------------------------------------------------|
|-----------------------------------------------------------|
|-----------------------------------------------------------|
|--------------------------2---2-----2---2------3p2p0-2v----|
|--33333333-22222222---0-0-0-0-0-0-0-0-0-0--0-0-------------|
   ........ ........   . .   .   . .   .    . .


 third time played
 like this
|---------------------------|
|---------------------------|
|---------------------------|
|---------------------------|
|---------------------------| after this play the next riff on bottom which
|--33333333-22222222--------| goes with this.
   ........ ........


(1.03)(4x)
|---------------------------------------------|
|---------------------------------------------|
|---------------------------------------------|
|--4----5----6----7----4----5----6----7~------|
|--2----3----4----5----2----3----4----5~------|
|----00---00---00---00---00---00---00---------|
     ..   ..   ..   ..   ..   ..   ..


(1.22)(3x)
|-----------------------------------------------------------|
|-----------------------------------------------------------|
|-----------------------------------------------------------|
|-----------------------------------------------------------|
|--------------------------2---2-----2---2------3p2p0-2v----|
|--33333333-22222222---0-0-0-0-0-0-0-0-0-0--0-0-------------|
   ........ ........   . .   .   . .   .    . .

third time played like this
|---------------------------|
|---------------------------|
|---------------------------|
|---------------------------|
|---------------------------|same thing, after this part play the next riff
|--33333333-22222222--------|on the bottom which goes with it
   ........ ........

(1.34)(2x)                           second time play this
|----------------------------------|------------------------------|
|----------------------------------|------------------------------|
|----------------------------------|------------------------------|
|---4----5----4----5----4---5~-----|--4----5----4----5----4-5~----|
|---2----3----2----3----2---3~-----|--2----3----2----3----2-3~----|
|-----00---00---00---00---0--------|----00---00---00---00---------|
      ..   ..   ..   ..   .


(1.44)(2x)
|------------------------|
|------------------------|
|------------------------|
|------------------------|
|--3334443334443344------|
|------------------------|
   ................

(1.48)(1x)                      second time play this
|-----------------------------|---------------------------|
|-----------------------------|---------------------------|
|-----------------------------|---------------------------|
|-----------------------------|---------------------------|
|--3----4----3----4----3---4~-|--3----4----3----4----3-4~-|
|--1-00-2-00-1-00-2-00-1-0-2~-|--1-00-2-00-1-00-2-00-1-2~-|
     ..   ..   ..   ..   .         ..   ..   ..   ..


(1.53)(2x)
|------------------------|
|------------------------|
|------------------------|
|------------------------|
|--3334443334443344------|
|------------------------|
   ................


(1.58)(1x)
                                    second time play this
|----------------------------------|------------------------------|
|----------------------------------|------------------------------|
|----------------------------------|------------------------------|
|---4----5----4----5----4---5~-----|--4----5----4----5----4-5~----|
|---2----3----2----3----2---3~-----|--2----3----2----3----2-3~----|
|-----00---00---00---00---0--------|----00---00---00---00---------|
      ..   ..   ..   ..   .

(2.03)(4x) Rhythm for solo
|---------0-----------0-------------0-------------0---|
|-----------0-----------0-------------0-------------0-|
|-----------------------------------------------------|
|----4-----------5-------------6-------------7--------|
|--2-----------3-------------4-------------5----------|
|-----------------------------------------------------|


(2.23)(6x)  *note: remember they make a dead stop the fourth time at an E5 power chord 
continue again two more times.
|-----------------------------------------|
|-----------------------------------------|
|-----------------------------------------|
|-----------------------------------------|
|--2-2--333--2-2--333--2-2--333--2-2-3~---|
|--0-0--111--0-0--111--0-0--111--0-0-1~---|
   . .  ...  . .  ...  . .  ...  . .

(2.51)(2x)Rhythm solo
|---------0-----------0-------------0-------------0---|
|-----------0-----------0-------------0-------------0-|
|-----------------------------------------------------|
|----4-----------5-------------6-------------7--------|
|--2-----------3-------------4-------------5----------|
|-----------------------------------------------------|


(3.01)(4x)
|---------------------------------------------|
|---------------------------------------------|
|---------------------------------------------|
|--4----5----6----7----4----5----6----7~------|
|--2----3----4----5----2----3----4----5~------|
|----00---00---00---00---00---00---00---------|
     ..   ..   ..   ..   ..   ..   ..


(3.20)(2x)
|-----------------------------------------------------------|
|-----------------------------------------------------------|
|-----------------------------------------------------------|
|-----------------------------------------------------------|
|--------------------------2---2-----2---2------3p2p0-2v----|
|--33333333-22222222---0-0-0-0-0-0-0-0-0-0--0-0-------------|
   ........ ........   . .   .   . .   .    . .

third time played like this
|---------------------------|
|---------------------------|
|---------------------------|
|---------------------------|
|---------------------------|same thing, after this part play the next riff
|--33333333-22222222--------|on the bottom which goes with it
   ........ ........

(3.31)(2X)                           second time play this
|----------------------------------|------------------------------|
|----------------------------------|------------------------------|
|----------------------------------|------------------------------|
|---4----5----4----5----4---5~-----|--4----5----4----5----4-5~----|
|---2----3----2----3----2---3~-----|--2----3----2----3----2-3~----|
|-----00---00---00---00---0--------|----00---00---00---00---------|
      ..   ..   ..   ..   .

(3.41)(2X)
|----------------------|
|----------------------|
|----------------------|
|----------------------|
|--3334443334443344----|
|----------------------|


(3.46)(1X)                     second time play this
|-----------------------------|---------------------------|
|-----------------------------|---------------------------|
|-----------------------------|---------------------------|
|-----------------------------|---------------------------|
|--3----4----3----4----3---4~-|--3----4----3----4----3-4~-|
|--1-00-2-00-1-00-2-00-1-0-2~-|--1-00-2-00-1-00-2-00-1-2~-|
     ..   ..   ..   ..   .         ..   ..   ..   ..


(3.50)(2X)
|----------------------|
|----------------------|
|----------------------|
|----------------------|
|--3334443334443344----|
|----------------------|


(3.55)Play this until the song ends
|---------------------------------------------|
|---------------------------------------------|
|---------------------------------------------|
|--4----5----6----7----4----5----6----7~------|
|--2----3----4----5----2----3----4----5~------|
|----00---00---00---00---00---00---00---------|
     ..   ..   ..   ..   ..   ..   ..

Thats it, it took me a long time to write and figure it out, so enjoy!!!!!!
Добавлено: 15.04.2012
Вам также может быть интересно:
Другие материалы по этой песне:
  • Аккорды и текст

Страница создана 15.04.2012
http://primanota.ru/laaz-rockit/chain-of-fools-chords.htm
Привет, Гость.
Предлагаем пройти революционный курс по гитаре.
Подарок от PrimaNota.Ru, забирай!