PrimaNota.ru - самый крупный в мире бесплатный архив песенных текстов, аккордов, табулатур и нот


La - After All - аккорды и текст, видео

Регистрация Запомнить меня
Войти через:  Facebook Google Twitter Vk Yandex Mail.ru

La - After All - аккорды и текст, видео

Печатать
Просмотров: 174
After All
La
L.A. - After all

Capo 6th fret

Note:
Chords C* and Em* have an asterisk to distinguish them from normal chords C and Em 

Chords:

C*:    x0023x
Em*:   x0020x
C:     010230
Em:    000220
Am:    012200
A:     022200
Asus4: 022300
G:     330023

1|------------------------------------------------------------------------------------------|
2|------------------------------------------------------------------------------------------|
3|------------------------------------------------------------------------------------------|
4|----0-----0-----0-----0-----0-----0-----0-----0-----0-----0-----0-------------------------|
5|-5-----5-----7-----7-----2-----2-----5-----5-----0-----0-----0-----0-----0-----0-----0----|
6|----------------------------------------------------------------------5-----5-----3-----3-|
Words I've never told, and the rest is gone

1|------------------------------------------------------------------------------------------|
2|------------------------------------------------------------------------------------------|
3|------------------------------------------------------------------------------------------|
4|----0-----0-----0-----0-----0-----0-----0-----0-----0-----0-----0-------------------------|
5|-5-----5-----7-----7-----2-----2-----5-----5-----0-----0-----0-----0-----0-----0-----0----|
6|----------------------------------------------------------------------5-----5-----3-----3-|
Roses on the floor depends on the clock

1|-----------------------------------------------------------------------|
2|-----------------------------------------------------------------------|
3|----------0-----------0-----------0-----------0-----------0-----------0|
4|----0-----------0-----------0-----------0-----------0----------0-------|
5|-----------------------------------------------------------------------|
6|-0-----0-----2-----2-----3-----3-----7-----7-----5-----5-----5-----5---|
If you never close your door

1|-----------------------------------------------------------------------|
2|-----------------------------------------------------------------------|
3|----------0-----------0-----------0-----------0-----------0-----------0|
4|----0-----------0-----------0-----------0-----------0----------0-------|
5|-----------------------------------------------------------------------|
6|-0-----0-----2-----2-----3-----3-----7-----7-----5-----5-----5-----5---|
If you never close your door

                  C*
I'll be in your arms

                  Em*
I'll be in your arms

                    C*                       Em*
Please never look back, if your sense is fading

                 C*                    Em*
Then open your mind, I'll be in your arms

[Solo] 
1|-2--3-----2---------------|
2|-------3-----2--2/3--0--0-|
3|--------------------------|
4|--------------------------|
5|--------------------------|
6|--------------------------|

1|------------------------------------------------------------------------------------------|
2|------------------------------------------------------------------------------------------|
3|------------------------------------------------------------------------------------------|
4|----0-----0-----0-----0-----0-----0-----0-----0-----0-----0-----0-------------------------|
5|-5-----5-----7-----7-----2-----2-----5-----5-----0-----0-----0-----0-----0-----0-----0----|
6|----------------------------------------------------------------------5-----5-----3-----3-|
Now is on my way but not for so long

1|-----------------------------------------------------------------------|
2|-----------------------------------------------------------------------|
3|----------0-----------0-----------0-----------0-----------0-----------0|
4|----0-----------0-----------0-----------0-----------0----------0-------|
5|-----------------------------------------------------------------------|
6|-0-----0-----2-----2-----3-----3-----7-----7-----5-----5-----5-----5---|
If you never close your door

1|-----------------------------------------------------------------------|
2|-----------------------------------------------------------------------|
3|----------0-----------0-----------0-----------0-----------0-----------0|
4|----0-----------0-----------0-----------0-----------0----------0-------|
5|-----------------------------------------------------------------------|
6|-0-----0-----2-----2-----3-----3-----7-----7-----5-----5-----5-----5---|
If you never close your door

[Start Strumming Gradually]

                   C
I'll be in your arms

                  Em
I'll be in your arms

                    Am                        C
Please never look back, if your sense is fading

             A Asus4 A
Then open your mind, 

                   C
I'll be in your arms

                    Am                        C
Please never look back, if your sense is fading

               A  Asus4  A      
Then open your mind...

G
There's a hope down the hole

C                                   G
I believe in every reason you deserve

          C                                 G
After all I believe in every word you never told

          C
After all I've never seen roses on the floor...

                  C*
I'll be in your arms .
                      .
                       } Repeat x6
                  Em* .
I'll be in your arms .

                  Em
I'll be in your arms...


[Solo] 
1|-2--3-----2---------------|
2|-------3-----2--2/3--0--0-|
3|--------------------------|
4|--------------------------|
5|--------------------------|
6|--------------------------|

[Start Strumming]

G
There's a hope down the hole

C                                   G
I believe in every reason you deserve

          C                                 G
After all I believe in any word you ever told

          C
After all I've never seen roses on the floor...

                   C*
I'll be in your arms .
                      .
                       } Repeat x6
                  Em* .
I'll be in your arms .
Добавлено: 03.08.2015
Другие материалы по этой песне:
  • Аккорды и текст

Страница создана 03.08.2015
http://primanota.ru/la/after-all-chords.htm
Привет, Гость.
Предлагаем пройти революционный курс по гитаре.
Подарок от PrimaNota.Ru, забирай!