PrimaNota.ru - самый крупный в мире бесплатный архив песенных текстов, аккордов, табулатур и нот


La Zurda - Como El Rio - таба, видео

Регистрация Запомнить меня
Войти через:  Facebook Google Twitter Vk Yandex Mail.ru

La Zurda - Como El Rio - таба, видео

Печатать
Просмотров: 114
Como el rio - La Zurda            http://www.lazurda.net/

Intro
  E   B   C#m    A    E   B   C#m   A
|-------------------|-----------------|
|-------------------|-----------------|
|--------9----------|--------6--------|
|--6-7-9---9--------|--6-7-9---6------|
|-------------------|-----------------|
|-------------------|-----------------|

      E 		B 	C#m	 A
Si tu eres la ventana como yo apuntaria sia 
E 		B 	C#m	 A
el sur porque alli estas ehh
E 		B 	C#m		 A
Cuanto tiempo que ha pasado y parecio siempre a la misma estacion triste
E 		B 	C#m		 A
Todo lo que pasa esta pasando nos a tiempo y solo una vez pasara como el rio
E 		B 	C#m		 A
Todo lo que pasa esta pasando nos a tiempo y solo una vez pasara como el rio
    
 E    B    C#m     A
|-------------------|
|-------------------|
|--------6----------|  
|--6-7-9------------|
|----------7--------|
|-------------------|

E 		B 	C#m		 A
Non mi devi piu aspettare salvati
E 		B 	C#m		 A
da questa parte del mare io ti guardero 
E 		B 	C#m		 A
possa tu provare tutto senza me 
E 		B 	C#m		 A
e dentro un sogno migliore rinascere
E 		B 	C#m		 A
Ogni giorno passa e va rubando il nostro tempo 
E 		B 	C#m		 A
tutto scorre e passa come il fiume 
E 		B 	C#m		 A
tutto questo tempo sta rubando il nostro tempo 
E 		B 	C#m		 A
che passa e non ritornero come il fiume


solo
|---------------|--------------------|-12-12-12--11-9-11-12-9-----9-----|
|-9-9-9-9-7--9--|-9-10-10-9-10-12-9--|-----------------------9-10--12-9-|
|-----------9---|------------------9-|----------------------------------|  
|---------------|--------------------|----------------------------------|
|---------------|--------------------|----------------------------------|
|---------------|--------------------|----------------------------------|

|-----------------------------------------------------------------------|
|--9-9-9-9---------------------------------12-12-12-9-10-12-9----9-9----|
|---------11-9-11--9-9------------9--8------------------------------11-9|  
|---------------------11-9----9-11-----9---------------------9-11-------|
|-------------------------9-11------------------------------------------|
|-----------------------------------------------------------------------|

E 		B 	C#m		 A
Una moto a color un paesaje a la luz esta libre con vos en america del sur
E 		B 	C#m		 A
Una moto a color un paesaje a la luz esta libre con vos en america del sur
E 		B 	C#m		 A
Todo lo que pasa esta pasando nos a tiempo y solo una vez pasara como el rio
E 		B 	C#m		 A
Todo lo que pasa esta pasando nos a tiempo y solo una vez pasara como el rio
E 		B 	C#m		 A
Uhhhh uhhhhh  uhhhhhh    uhhhhhhh  
E 		B 	C#m		 A
Uhhhh uhhhhh  uhhhhhh    uhhhhhhh  

Outro
 E   B   C#m   A      E   B  C#m   A   E
|-------------------|-----------------|
|-------------------|-----------------|
|--------9----------|--------6--------|
|--6-7-9---9--------|--6-7-9---9------|
|-------------------|-----------------|
|-------------------|-----------------|
Добавлено: 28.02.2012
Другие материалы по этой песне:
  • Аккорды и текст

Страница создана 28.02.2012
http://primanota.ru/la-zurda/como-el-rio-chords.htm
Привет, Гость.
Предлагаем пройти революционный курс по гитаре.
Подарок от PrimaNota.Ru, забирай!