PrimaNota.ru - самый крупный в мире бесплатный архив песенных текстов, аккордов, табулатур и нот


La Vida Bohme - Nicaragua - таба, видео

Регистрация Запомнить меня
Войти через:  Facebook Google Twitter Vk Yandex Mail.ru

La Vida Bohme - Nicaragua - таба, видео

Печатать
Просмотров: 69
Canción: Nicaragua     
Artista: La Vida Bohème                                                
Albúm: Nuestra

Tracks:
1° Henry(Guitarra)
2° Daniel(Guitarra)

     Acabando 10.- El Sentimiento Ha Muerto...  
     W                                          
E||--------------------------------------------|
B||--------------------------------------------|
G||--------------------------------------------|
D||--------------------------------------------|
A||--------------------------------------------|
E||--------------------------------------------|


(Intro)
1°                                      
   Q            Q    Q    Q       Q    Q    Q    Q     
-------------------------------|----------------------|
--10------------L----L----L----|--L----L----9----L----|
-------------------------------|----------------------|
-------------------------------|----------------------|
---0------------L----L----L----|--L----L--------------|
-------------------------------|------------0----L----|


  Q    Q    Q    Q        Q    Q    Q    Q     
----------------------|-----------------------|
--L----L----L----L----|--10----L----L----L----|
----------------------|-----------------------|
----------------------|-----------------------|
----------------------|---0----L----L----L----|
--L----L----L----L----|-----------------------|


  Q    Q    Q    Q       Q    Q    Q    Q     
----------------------|----------------------|
--L----L----9----L----|--L----L----L----L----|
----------------------|----------------------|
----------------------|----------------------|
--L----L--------------|----------------------|
------------0----L----|--L----L----L----L----|


   Q    Q    Q    Q       Q    Q    Q    Q     
-----------------------|----------------------|
--10----L----L----L----|--L----L----9----L----|
-----------------------|----------------------|
-----------------------|----------------------|
---0----L----L----L----|--L----L--------------|
-----------------------|------------0----L----|


  Q    Q    Q    Q        Q    Q    Q    Q     
----------------------|-----------------------|
--L----L----L----L----|--10----L----L----L----|
----------------------|-----------------------|
----------------------|-----------------------|
----------------------|---0----L----L----L----|
--L----L----L----L----|-----------------------|


  Q    Q    Q    Q       Q    Q    Q    Q     
----------------------|----------------------|
--L----L----9----L----|--L----L----L----L----|
----------------------|----------------------|
----------------------|----------------------|
--L----L--------------|----------------------|
------------0----L----|--L----L----L----L----|


   Q    Q    Q    Q       Q    Q    Q    Q     
-----------------------|----------------------|
--10----L----L----L----|--L----L----9----L----|
-----------------------|----------------------|
-----------------------|----------------------|
---0----L----L----L----|--L----L--------------|
-----------------------|------------0----L----|


  Q    Q    Q    Q        Q    Q    Q    Q     
----------------------|-----------------------|
--L----L----L----L----|--10----L----L----L----|
----------------------|-----------------------|
----------------------|-----------------------|
----------------------|---0----L----L----L----|
--L----L----L----L----|-----------------------|


  Q    Q    Q    Q       Q    Q    Q    Q     
----------------------|----------------------|
--L----L----9----L----|--L----L----L----L----|
----------------------|----------------------|
----------------------|----------------------|
--L----L--------------|----------------------|
------------0----L----|--L----L----L----L----|


  Q    Q    Q    Q       Q    Q    Q    Q     
----------------------|----------------------|
----------------------|----------------------|
--9----L----L----L----|--L----L----4----L----|
----------------------|----------------------|
----------------------|----------------------|
--8----L----L----L----|--L----L----3----L----|


  Q    Q    Q    Q       Q    Q    Q    Q     
----------------------|----------------------|
----------------------|--9----L----L----L----|
--L----L----L----L----|----------------------|
----------------------|----------------------|
----------------------|----------------------|
--L----L----L----L----|--0----L----L----L----|


  Q    Q     Q    Q       Q    Q    Q    Q     
-----------------------|----------------------|
--L----L----10----L----|--L----L----L----L----|
-----------------------|----------------------|
-----------------------|----------------------|
-------------0----L----|--L----L----L----L----|
--L----L---------------|----------------------|


  Q    Q    Q    Q       Q    Q    Q    Q     
----------------------|----------------------|
----------------------|----------------------|
--9----L----L----L----|--L----L----4----L----|
----------------------|----------------------|
----------------------|----------------------|
--8----L----L----L----|--L----L----3----L----|


  Q    Q    Q    Q       Q    Q    Q    Q     
----------------------|----------------------|
----------------------|--9----L----L----L----|
--L----L----L----L----|----------------------|
----------------------|----------------------|
----------------------|----------------------|
--L----L----L----L----|--0----L----L----L----|


  Q    Q     Q    Q       Q    Q    Q    Q     
-----------------------|----------------------|
--L----L----10----L----|--L----L----L----L----|
-----------------------|----------------------|
-----------------------|----------------------|
-------------0----L----|--L----L----L----L----|
--L----L---------------|----------------------|
2°
*Harmónicos naturales, rasgado horizontal con las cuerdas  
E||-------|
B||-------|
G||-------|
D||-------|
A||-------|
E||-------|

(Break)

1°
   E   E  E   E   E   E  E   E   
--------------------------------|
--10--10-----10--10--10-----10--|
---9---9------9---9---9------9--|
--10--10-----10--10--10-----10--|
---0---0------0---0---0------0--|
--------------------------------|


   E   E  E   E   E   E  E   E   
--------------------------------|
--10--10-----10--10--10-----10--|
---9---9------9---9---9------9--|
--10--10-----10--10--10-----10--|
---0---0------0---0---0------0--|
--------------------------------|


   E  E   E   E   E   E   E   E   
---------------------------------|
--10-----10--10--10--10---x--10--|
---9------9---9---9---9---x---8--|
--10-----10--10--10--10---x---9--|
---------------------------------|
---8------8---8---8---8---x---7--|


  E   E  E   E   E   E   E   E   
--------------------------------|
-----10-----10--10--10--10--10--|
------8------8---8---8---8---8--|
------9------9---9---9---9---9--|
--------------------------------|
------7------7---7---7---7---7--|


   E   E  E   E   E   E  E   E   
--------------------------------|
--10--10-----10--10--10-----10--|
---9---9------9---9---9------9--|
--10--10-----10--10--10-----10--|
---0---0------0---0---0------0--|
--------------------------------|


   E   E  E   E   E   E  E   E   
--------------------------------|
--10--10-----10--10--10-----10--|
---9---9------9---9---9------9--|
--10--10-----10--10--10-----10--|
---0---0------0---0---0------0--|
--------------------------------|


   E  E   E   E   E   E   E   E   
---------------------------------|
--10-----10--10--10--10---x--10--|
---9------9---9---9---9---x---8--|
--10-----10--10--10--10---x---9--|
---------------------------------|
---8------8---8---8---8---x---7--|


  E   E  E   E   E   E   E   E   
--------------------------------|
-----10-----10--10--10--10--10--|
------8------8---8---8---8---8--|
------9------9---9---9---9---9--|
--------------------------------|
------7------7---7---7---7---7--|


   E   E  E   E   E   E  E   E   
--------------------------------|
--10--10-----10--10--10-----10--|
---9---9------9---9---9------9--|
--10--10-----10--10--10-----10--|
---0---0------0---0---0------0--|
--------------------------------|


   E   E  E   E   E   E  E   E   
--------------------------------|
--10--10-----10--10--10-----10--|
---9---9------9---9---9------9--|
--10--10-----10--10--10-----10--|
---0---0------0---0---0------0--|
--------------------------------|


   E  E   E   E   E   E   E   E   
---------------------------------|
--10-----10--10--10--10---x--10--|
---9------9---9---9---9---x---8--|
--10-----10--10--10--10---x---9--|
---------------------------------|
---8------8---8---8---8---x---7--|


  E   E  E   E   E   E   E   E   
--------------------------------|
-----10-----10--10--10--10--10--|
------8------8---8---8---8---8--|
------9------9---9---9---9---9--|
--------------------------------|
------7------7---7---7---7---7--|


   E   E  E   E   E   E  E   E   
--------------------------------|
--10--10-----10--10--10-----10--|
---9---9------9---9---9------9--|
--10--10-----10--10--10-----10--|
---0---0------0---0---0------0--|
--------------------------------|


   E   E  E   E   E   E  E   E   
--------------------------------|
--10--10-----10--10--10-----10--|
---9---9------9---9---9------9--|
--10--10-----10--10--10-----10--|
---0---0------0---0---0------0--|
--------------------------------|


   E  E   E   E   E   E   E   E   
---------------------------------|
--10-----10--10--10--10---x--10--|
---9------9---9---9---9---x---8--|
--10-----10--10--10--10---x---9--|
---------------------------------|
---8------8---8---8---8---x---7--|


  E   E  E   E   E   E   E   E   
--------------------------------|
-----10-----10--10--10--10--10--|
------8------8---8---8---8---8--|
------9------9---9---9---9---9--|
--------------------------------|
------7------7---7---7---7---7--|


   E   E  E   E   E   E  E   E   
--------------------------------|
--10--10-----10--10--10-----10--|
---9---9------9---9---9------9--|
--10--10-----10--10--10-----10--|
---0---0------0---0---0------0--|
--------------------------------|


   E   E  E   E   E   E  E   E   
--------------------------------|
--10--10-----10--10--10-----10--|
---9---9------9---9---9------9--|
--10--10-----10--10--10-----10--|
---0---0------0---0---0------0--|
--------------------------------|


   E  E   E   E   E   E   E   E   
---------------------------------|
--10-----10--10--10--10---x--10--|
---9------9---9---9---9---x---8--|
--10-----10--10--10--10---x---9--|
---------------------------------|
---8------8---8---8---8---x---7--|


  E   E  E   E   E   E   E   E   
--------------------------------|
-----10-----10--10--10--10--10--|
------8------8---8---8---8---8--|
------9------9---9---9---9---9--|
--------------------------------|
------7------7---7---7---7---7--|


   E   E  E   E   E   E  E   E   
--------------------------------|
--10--10-----10--10--10-----10--|
---9---9------9---9---9------9--|
--10--10-----10--10--10-----10--|
---0---0------0---0---0------0--|
--------------------------------|


   E   E  E   E   E   E  E   E   
--------------------------------|
--10--10-----10--10--10-----10--|
---9---9------9---9---9------9--|
--10--10-----10--10--10-----10--|
---0---0------0---0---0------0--|
--------------------------------|


   E  E   E   E   E   E   E   E   
---------------------------------|
--10-----10--10--10--10---x--10--|
---9------9---9---9---9---x---8--|
--10-----10--10--10--10---x---9--|
---------------------------------|
---8------8---8---8---8---x---7--|


  E   E  E   E   E   E   E   E   
--------------------------------|
-----10-----10--10--10--10--10--|
------8------8---8---8---8---8--|
------9------9---9---9---9---9--|
--------------------------------|
------7------7---7---7---7---7--|

2°
Q    Q    Q    Q       Q    Q    Q    Q     
----------------------|----------------------|
-------5---------5----|-------5---------5----|
--5---------5---------|--5---------5---------|
----------------------|----------------------|
----------------------|----------------------|
----------------------|----------------------|


  Q    Q    Q    Q       Q    Q    Q    Q     
----------------------|----------------------|
-------6---------6----|-------5---------5----|
--5---------5---------|--4---------4---------|
----------------------|----------------------|
----------------------|----------------------|
----------------------|----------------------|


  Q    Q    Q    Q       Q    Q    Q    Q     
----------------------|----------------------|
-------5---------5----|-------5---------5----|
--5---------5---------|--5---------5---------|
----------------------|----------------------|
----------------------|----------------------|
----------------------|----------------------|


  Q    Q    Q    Q       Q    Q    Q    Q     
----------------------|----------------------|
-------6---------6----|-------5---------5----|
--5---------5---------|--4---------4---------|
----------------------|----------------------|
----------------------|----------------------|
----------------------|----------------------|


   S  S  S  S  S  S  S  S  S  S  S  S  S  S  S  S  
--------------------------------------15-15-15-15-|
--13-13-13-13-12-12-12-12-------------------------|
--------------------------14-14-14-14-------------|
--------------------------------------------------|
--------------------------------------------------|
--------------------------------------------------|


   S  S  S  S  S  S  S  S  S  S  S  S  S  S  S  S  
--15-15-15-15-12-12-12-12-12-12-12-12-12-12-12-12-|
--------------------------------------------------|
--------------------------------------------------|
--------------------------------------------------|
--------------------------------------------------|
--------------------------------------------------|


   S  S  S  S  S  S  S  S  S  S  S  S  S  S  S  S  
--------------------------------------15-15-15-15-|
--13-13-13-13-12-12-12-12-------------------------|
--------------------------14-14-14-14-------------|
--------------------------------------------------|
--------------------------------------------------|
--------------------------------------------------|


   S  S  S  S  S  S  S  S  S  S  S  S  S  S  S  S  
--15-15-15-15-12-12-12-12-12-12-12-12-12-12-12-12-|
--------------------------------------------------|
--------------------------------------------------|
--------------------------------------------------|
--------------------------------------------------|
--------------------------------------------------|


   S  S  S  S  S  S  S  S  S  S  S  S  S  S  S  S  
--------------------------------------15-15-15-15-|
--13-13-13-13-12-12-12-12-------------------------|
--------------------------14-14-14-14-------------|
--------------------------------------------------|
--------------------------------------------------|
--------------------------------------------------|


   S  S  S  S  S  S  S  S  S  S  S  S  S  S  S  S  
--15-15-15-15-12-12-12-12-12-12-12-12-12-12-12-12-|
--------------------------------------------------|
--------------------------------------------------|
--------------------------------------------------|
--------------------------------------------------|
--------------------------------------------------|


   S  S  S  S  S  S  S  S  S  S  S  S  S  S  S  S  
--------------12-12-12-12-------------------------|
--15-15-15-15-------------15-15-15-15-13-13-13-13-|
--------------------------------------------------|
--------------------------------------------------|
--------------------------------------------------|
--------------------------------------------------|


   S  S  S  S  S  S  S  S  S  S  S  S  S  S  S  S       
--------------------------------------------------|----|
--13-13-13-13-15-15-15-15-12-12-12-12-12-12-12-12-|----|
--------------------------------------------------|----|
--------------------------------------------------|----|
--------------------------------------------------|----|
--------------------------------------------------|----|

(Puente)


  E  E  E  E  E  E  E  E     E  E  E  E  E  E  E  E   
--------------------------|--------------------------|
--x--5--5--x--------x--6--|--6--x--------x--x--x--x--|
--x--------x--5--5--x-----|-----x--7--7--x--x--x--x--|
--x--------x--------x-----|-----x--------x--x--x--x--|
--x--3--3--x--3--3--x--5--|--5--x--5--5--x--x--x--x--|
--------------------------|--------------------------|


  E  E  E  E  E  E  E  E     E  E  E  E  E  E  E  E   
--------------------------|--------------------------|
--x--5--5--x--------x--5--|--5--x--------x--x--x--x--|
--x--------x--5--5--x-----|-----x--5--5--x--x--x--x--|
--x--------x--------x-----|-----x--------x--x--x--x--|
--x--------x--------x-----|-----x--------x--x--x--x--|
-----5--5--x--5--5--x--5--|--5--x--5--5--x--x--x--x--|


  E  E  E  E  E  E  E  E     E  E  E  E  E  E  E  E   
--------------------------|--------------------------|
--x--5--5--x--------x--6--|--6--x--------x--x--x--x--|
--x--------x--4--4--x-----|-----x--7--7--x--x--x--x--|
--x--------x--------x-----|-----x--------x--x--x--x--|
--x--------x--------x--5--|--5--x--5--5--x--x--x--x--|
--x--4--4--x--4--4--x-----|--------------------------|


  E  E  E  E  E  E  E  E     E  E  E  E  H         
--------------------------|-----------------------|
--x--5--5--x--------x--5--|--5--x-----------------|
--x--------x--5--5--x-----|-----x--5--5-----------|
--x--------x--------x-----|-----x-----------------|
--x--------x--------x-----|-----x-----------------|
-----5--5--x--5--5--x--5--|--5--x--5--5-----------|

2°
*Harmónicos naturales, rasgado horizontal con las cuerdas  
E||-------|
B||-------|
G||-------|
D||-------|
A||-------|
E||-------|

(Otro puente)

1°
  E  E  E  E  E  E  E  E     E  E  E  E  E  E  E  E   
--------------------------|--------------------------|
-----------------------6--|--L--6--6--6--6--6--x-----|
--5--5--5--5--5--5--x--5--|--L--5--5--5--5--5--x--5--|
--5--5--5--5--5--5--x--3--|--L--3--3--3--3--3--x--7--|
--3--3--3--3--3--3--x-----|-----------------------7--|
--------------------------|-----------------------5--|


  E  E  E  E  E  E  E  E     E  E  E  E  E  E  E  E   
--------------------------|--------------------------|
--------------------------|-----------------------9--|
--L--5--5--5--5--5--5--5--|--5--5--5--5--5--5--x--8--|
--L--7--7--7--7--7--7--7--|--7--7--7--7--7--7--x--6--|
--L--7--7--7--7--7--7--7--|--7--7--7--7--7--7--x-----|
--L--5--5--5--5--5--5--5--|--5--5--5--5--5--5--x-----|


  E  E  E  E  E  E  E  E     E  E  E  E  E  E  E  E   
--------------------------|--------------------------|
--L--9--9--9--9--9--x--6--|--L--6--6--6--6--6--x-----|
-----8--8--8--8--8--x--5--|--L--5--5--5--5--5--x--5--|
--L--6--6--6--6--6--x--3--|--L--3--3--3--3--3--x--7--|
--L-----------------------|-----------------------7--|
--------------------------|-----------------------5--|


  E  E  E  E  E  E  E  E     E  E  E  E  E  E  E  E   
--------------------------|--------------------------|
--------------------------|--------------------------|
--L--5--x--5--5--5--x--5--|--5--5--x--5--5--5--5--5--|
--L--7--x--7--7--7--x--7--|--7--7--x--7--7--7--7--7--|
--L--7--x--7--7--7--x--7--|--7--7--x--7--7--7--7--7--|
--L--5--x--5--5--5--x--5--|--5--5--x--5--5--5--5--5--|


  E  E  E  E  E  E  E  E     E  E  E  E  E  E  E  E   
--------------------------|--------------------------|
-----------------------6--|--L--6--6--6--6--6--x-----|
--5--5--5--5--5--5--x--5--|--L--5--5--5--5--5--x--5--|
--5--5--5--5--5--5--x--3--|--L--3--3--3--3--3--x--7--|
--3--3--3--3--3--3--x-----|-----------------------7--|
--------------------------|-----------------------5--|


  E  E  E  E  E  E  E  E     E  E  E  E  E  E  E  E   
--------------------------|--------------------------|
--------------------------|-----------------------9--|
--L--5--5--5--5--5--5--5--|--5--5--5--5--5--5--x--8--|
--L--7--7--7--7--7--7--7--|--7--7--7--7--7--7--x--6--|
--L--7--7--7--7--7--7--7--|--7--7--7--7--7--7--x-----|
--L--5--5--5--5--5--5--5--|--5--5--5--5--5--5--x-----|


  E  E  E  E  E  E  E  E     E  E  E  E  E  E  E  E   
--------------------------|--------------------------|
--L--9--9--9--9--9--x--6--|--L--6--6--6--6--6--x-----|
-----8--8--8--8--8--x--5--|--L--5--5--5--5--5--x--5--|
--L--6--6--6--6--6--x--3--|--L--3--3--3--3--3--x--7--|
--L-----------------------|-----------------------7--|
--------------------------|-----------------------5--|


  E  E  E  E  E  E  E  E     E  E  E  E  E  E  E  E   
--------------------------|--------------------------|
--------------------------|--------------------------|
--L--5--x--5--5--5--x--5--|--5--5--x--5--5--5--x--x--|
--L--7--x--7--7--7--x--7--|--7--7--x--7--7--7--x--x--|
--L--7--x--7--7--7--x--7--|--7--7--x--7--7--7--x--x--|
--L--5--x--5--5--5--x--5--|--5--5--x--5--5--5--x--x--|

2°
E  E  E  E  E  E  E  E     E  E  E  E  E  E  E  E   
--------------------------|--------------------------|
--------------------------|--------------------------|
--------------------------|--------------------------|
--------------------------|--------------------------|
--3--3--3--3--3--3--3--3--|--8--8--8--8--7--7--7--7--|
--------------------------|--------------------------|


  E  E  E  E  E  E  E  E     E  E  E  E  E  E  E  E   
--------------------------|--------------------------|
--------------------------|--------------------------|
--------------------------|--------------------------|
--------------------------|--------------------------|
--------------------------|--------------------------|
--5--5--5--5--5--5--5--5--|--5--5--5--5--5--5--5--5--|


  E  E  E  E  E  E  E  E     E  E  E  E  E  E  E  E   
--------------------------|--------------------------|
--------------------------|--------------------------|
--------------------------|--------------------------|
--------------------------|--------------------------|
--------------------------|--8--8--8--8--7--7--7--7--|
--4--4--4--4--4--4--4--4--|--------------------------|


  E  E  E  E  E  E  E  E     E  E  E  E  E  E  E  E   
--------------------------|--------------------------|
--------------------------|--------------------------|
--------------------------|--------------------------|
--------------------------|--------------------------|
--------------------------|--------------------------|
--5--5--5--5--5--5--5--5--|--5--5--5--5--5--5--5--5--|


  E  E  E  E  E  E  E  E     E  E  E  E  E  E  E  E   
--------------------------|--------------------------|
--------------------------|--------------------------|
--------------------------|--------------------------|
--------------------------|--------------------------|
--3--3--3--3--3--3--3--3--|--8--8--8--8--7--7--7--7--|
--------------------------|--------------------------|


  E  E  E  E  E  E  E  E     E  E  E  E  E  E  E  E   
--------------------------|--------------------------|
--------------------------|--------------------------|
--------------------------|--------------------------|
--------------------------|--------------------------|
--------------------------|--------------------------|
--5--5--5--5--5--5--5--5--|--5--5--5--5--5--5--5--5--|


  E  E  E  E  E  E  E  E     E  E  E  E  E  E  E  E   
--------------------------|--------------------------|
--------------------------|--------------------------|
--------------------------|--------------------------|
--------------------------|--------------------------|
--------------------------|--8--8--8--8--7--7--7--7--|
--4--4--4--4--4--4--4--4--|--------------------------|


  E  E  E  E  E  E  E  E     E  E  E  E  E  E  E  E   
--------------------------|--------------------------|
--------------------------|--------------------------|
--------------------------|--------------------------|
--------------------------|--------------------------|
--------------------------|--------------------------|
--5--5--x--5--5--5--x--5--|--5--5--x--5--5--5--x--5--|


(Verso)

1°
   E.   E.   E   E  Q.        W                 
---------------------------|-------------------|
--10---10---10--10---------|-------------------|
---9----9----9---9---------|-------------------|
--10---10---10--10---------|-------------------|
---0----0----0---0---------|-------------------|
---------------------------|-------------------|


  E.  E.  E  E  Q.        H.           E  E   
-----------------------|---------------------|
-----------------------|---------------------|
--7---7---7--7---------|---------------------|
--6---6---6--6---------|---------------------|
--7---7---7--7---------|---------------------|
--0---0---0--0---------|---------------------|


   E   E  E   E   E   E  E   E   
--------------------------------|
--10--10-----10--10--10-----10--|
--10--10-----10--10--10-----10--|
--------------------------------|
--------------------------------|
--10--10-----10--10--10-----10--|


   E   E  E   E   E   E  E   E   
--------------------------------|
--10--10-----10--10--10-----10--|
--10--10-----10--10--10-----10--|
--------------------------------|
--------------------------------|
--10--10-----10--10--10-----10--|


   E   E  E   E   E   E  E   E   
--------------------------------|
--10--10-----10--10--10-----10--|
---9---9------9---9---9------9--|
--10--10-----10--10--10-----10--|
---0---0------0---0---0------0--|
--------------------------------|


   E   E  E   E   E   E  E   E   
--------------------------------|
--10--10-----10--10--10-----10--|
---9---9------9---9---9------9--|
--10--10-----10--10--10-----10--|
---0---0------0---0---0------0--|
--------------------------------|


   E.   E.   E   E  Q.        W                 
---------------------------|-------------------|
--10---10---10--10---------|-------------------|
---9----9----9---9---------|-------------------|
--10---10---10--10---------|-------------------|
---0----0----0---0---------|-------------------|
---------------------------|-------------------|


  E.  E.  E  E  Q.        H.           E  E   
-----------------------|---------------------|
-----------------------|---------------------|
--7---7---7--7---------|---------------------|
--6---6---6--6---------|---------------------|
--7---7---7--7---------|---------------------|
--0---0---0--0---------|---------------------|

(Coro?)

1°
   E   E  E   E   E   E  E   E   
--------------------------------|
--10--10-----10--10--10-----10--|
--10--10-----10--10--10-----10--|
--------------------------------|
--------------------------------|
--10--10-----10--10--10-----10--|


   E   E  E   E   E   E  E   E   
--------------------------------|
--10--10-----10--10--10-----10--|
--10--10-----10--10--10-----10--|
--------------------------------|
--------------------------------|
--10--10-----10--10--10-----10--|


   E   E  E   E   E   E  E   E   
--------------------------------|
--10--10-----10--10--10-----10--|
---9---9------9---9---9------9--|
--10--10-----10--10--10-----10--|
---0---0------0---0---0------0--|
--------------------------------|


  E  E  E  E  E  Q.      
------------------------|
------------------------|
--7--7--7--7--7---------|
--6--6--6--6--6---------|
--7--7--7--7--7---------|
--0--0--0--0--0---------|


   E   E   E   E   E   E   E   E   
----------------------------------|
--10--10--10--10--10--10--10--10--|
--10--10--10--10--10--10--10--10--|
----------------------------------|
---8---8---8---8---8---8---8---8--|
----------------------------------|


   E   E   E   E   E   E   E   E   
----------------------------------|
--10--10--10--10--10--10--10--10--|
--10--10--10--10--10--10--10--10--|
----------------------------------|
---8---8---8---8---8---8---8---8--|
----------------------------------|


   E   E   E   E   E   E   E   E   
----------------------------------|
----------------------------------|
---9---9---9---9---9---9---9---9--|
----------------------------------|
--10--10--10--10--10--10--10--10--|
---8---8---8---8---8---8---8---8--|


   E   E   E   E   E   E   E   E   
----------------------------------|
----------------------------------|
---9---9---9---9---9---9---9---9--|
----------------------------------|
--10--10--10--10--10--10--10--10--|
---8---8---8---8---8---8---8---8--|


   E   E   E   E   E   E   E   E   
----------------------------------|
--12--12--12--12--12--12--12--12--|
--12--12--12--12--12--12--12--12--|
----------------------------------|
--10--10--10--10--10--10--10--10--|
----------------------------------|


   E   E   E   E   E   E   E   E   
----------------------------------|
--12--12--12--12--12--12--12--12--|
--12--12--12--12--12--12--12--12--|
----------------------------------|
--10--10--10--10--10--10--10--10--|
----------------------------------|


   E   E   E   E   E   E   E   E   
----------------------------------|
----------------------------------|
--11--11--11--11--11--11--11--11--|
----------------------------------|
--12--12--12--12--12--12--12--12--|
--10--10--10--10--10--10--10--10--|


   E   E   E   E   E   E   E   E   
----------------------------------|
----------------------------------|
--11--11--11--11--11--11--11--11--|
----------------------------------|
--12--12--12--12--12--12--12--12--|
--10--10--10--10--10--10--10--10--|


   E   E   E   E   E   E   E   E   
----------------------------------|
--10--10--10--10--10--10--10--10--|
--10--10--10--10--10--10--10--10--|
----------------------------------|
---8---8---8---8---8---8---8---8--|
----------------------------------|


   E   E   E   E   E   E   E   E   
----------------------------------|
--10--10--10--10--10--10--10--10--|
--10--10--10--10--10--10--10--10--|
----------------------------------|
---8---8---8---8---8---8---8---8--|
----------------------------------|


   E   E   E   E   E   E   E   E   
----------------------------------|
----------------------------------|
---9---9---9---9---9---9---9---9--|
----------------------------------|
--10--10--10--10--10--10--10--10--|
---8---8---8---8---8---8---8---8--|


   E   E   E   E   E   E   E   E   
----------------------------------|
----------------------------------|
---9---9---9---9---9---9---9---9--|
----------------------------------|
--10--10--10--10--10--10--10--10--|
---8---8---8---8---8---8---8---8--|


   E   E   E   E   E   E   E   E   
----------------------------------|
--12--12--12--12--12--12--12--12--|
--12--12--12--12--12--12--12--12--|
----------------------------------|
--10--10--10--10--10--10--10--10--|
----------------------------------|


   E   E   E   E   E   E   E   E   
----------------------------------|
--12--12--12--12--12--12--12--12--|
--12--12--12--12--12--12--12--12--|
----------------------------------|
--10--10--10--10--10--10--10--10--|
----------------------------------|


   E   E   E   E   E   E   E   E   
----------------------------------|
----------------------------------|
--11--11--11--11--11--11--11--11--|
----------------------------------|
--12--12--12--12--12--12--12--12--|
--10--10--10--10--10--10--10--10--|


   E   E   E   E   E   E   E   E   
----------------------------------|
----------------------------------|
--11--11--11--11--11--11--11--11--|
----------------------------------|
--12--12--12--12--12--12--12--12--|
--10--10--10--10--10--10--10--10--|


   S  S  S  S  E   E  H           W                 
-------------------------------|-------------------|
--10-10-10-10-10--10-----------|-------------------|
---9--9--9--9--9---9-----------|-------------------|
--10-10-10-10-10--10-----------|-------------------|
---0--0--0--0--0---0-----------|-------------------|
-------------------------------|-------------------|


  S S S S E  E  H           H.           E  E   
-------------------------|---------------------|
-------------------------|---------------------|
--7-7-7-7-7--7-----------|---------------------|
--6-6-6-6-6--6-----------|---------------------|
--7-7-7-7-7--7-----------|---------------------|
--0-0-0-0-0--0-----------|---------------------|

2°

Q.     H        E     Q.     H        E   
---------------------|---------------------|
--5------6--------L--|--5------6--------L--|
---------------------|---------------------|
---------------------|---------------------|
---------------------|---------------------|
---------------------|---------------------|


  Q.     H        E     Q.     H        E   
--3------5--------L--|--3------5--------L--|
---------------------|---------------------|
---------------------|---------------------|
---------------------|---------------------|
---------------------|---------------------|
---------------------|---------------------|


  Q.     H        E     Q.     H        E   
---------------------|---------------------|
--5------6--------L--|--5------6--------L--|
---------------------|---------------------|
---------------------|---------------------|
---------------------|---------------------|
---------------------|---------------------|


  Q.     H        E     Q.     H        E   
---------------------|---------------------|
--1------3--------L--|--1------3--------L--|
---------------------|---------------------|
---------------------|---------------------|
---------------------|---------------------|
---------------------|---------------------|


  Q.     H        E     Q.     H        E   
---------------------|---------------------|
--5------6--------L--|--5------6--------L--|
---------------------|---------------------|
---------------------|---------------------|
---------------------|---------------------|
---------------------|---------------------|


  Q.     H        E     Q.     H        E   
--3------5--------L--|--3------5--------L--|
---------------------|---------------------|
---------------------|---------------------|
---------------------|---------------------|
---------------------|---------------------|
---------------------|---------------------|


  Q.     H        E     Q.     H        E   
---------------------|---------------------|
--5------6--------L--|--5------6--------L--|
---------------------|---------------------|
---------------------|---------------------|
---------------------|---------------------|
---------------------|---------------------|


  Q.     H        E     Q.     H        E   
---------------------|---------------------|
--1------3--------L--|--1------3--------L--|
---------------------|---------------------|
---------------------|---------------------|
---------------------|---------------------|
---------------------|---------------------|

 S  S  S  S  E   E  H           W                 
-------------------------------|-------------------|
--10-10-10-10-10--10-----------|-------------------|
---9--9--9--9--9---9-----------|-------------------|
--10-10-10-10-10--10-----------|-------------------|
---0--0--0--0--0---0-----------|-------------------|
-------------------------------|-------------------|


  S S S S E  E  H           H.           E  E   
-------------------------|---------------------|
-------------------------|---------------0--L--|
--7-7-7-7-7--7-----------|---------------0--L--|
--6-6-6-6-6--6-----------|---------------0--L--|
--7-7-7-7-7--7-----------|---------------0--L--|
--0-0-0-0-0--0-----------|---------------------|

(Break o riff principal)

1°
   E   E  E   E   E   E  E   E   
--------------------------------|
--10--10-----10--10--10-----10--|
---9---9------9---9---9------9--|
--10--10-----10--10--10-----10--|
---0---0------0---0---0------0--|
--------------------------------|


   E   E  E   E   E   E  E   E   
--------------------------------|
--10--10-----10--10--10-----10--|
---9---9------9---9---9------9--|
--10--10-----10--10--10-----10--|
---0---0------0---0---0------0--|
--------------------------------|


   E  E   E   E   E   E   E   E   
---------------------------------|
--10-----10--10--10--10---x--10--|
---9------9---9---9---9---x---8--|
--10-----10--10--10--10---x---9--|
---------------------------------|
---8------8---8---8---8---x---7--|


  E   E  E   E   E   E   E   E   
--------------------------------|
-----10-----10--10--10--10--10--|
------8------8---8---8---8---8--|
------9------9---9---9---9---9--|
--------------------------------|
------7------7---7---7---7---7--|


   E   E  E   E   E   E  E   E   
--------------------------------|
--10--10-----10--10--10-----10--|
---9---9------9---9---9------9--|
--10--10-----10--10--10-----10--|
---0---0------0---0---0------0--|
--------------------------------|


   E   E  E   E   E   E  E   E   
--------------------------------|
--10--10-----10--10--10-----10--|
---9---9------9---9---9------9--|
--10--10-----10--10--10-----10--|
---0---0------0---0---0------0--|
--------------------------------|


   E  E   E   E   E   E   E   E   
---------------------------------|
--10-----10--10--10--10---x--10--|
---9------9---9---9---9---x---8--|
--10-----10--10--10--10---x---9--|
---------------------------------|
---8------8---8---8---8---x---7--|


  E   E  E   E   E   E   E   E   
--------------------------------|
-----10-----10--10--10--10--10--|
------8------8---8---8---8---8--|
------9------9---9---9---9---9--|
--------------------------------|
------7------7---7---7---7---7--|


   E   E  E   E   E   E  E   E   
--------------------------------|
--10--10-----10--10--10-----10--|
---9---9------9---9---9------9--|
--10--10-----10--10--10-----10--|
---0---0------0---0---0------0--|
--------------------------------|


   E   E  E   E   E   E  E   E   
--------------------------------|
--10--10-----10--10--10-----10--|
---9---9------9---9---9------9--|
--10--10-----10--10--10-----10--|
---0---0------0---0---0------0--|
--------------------------------|


   E  E   E   E   E   E   E   E   
---------------------------------|
--10-----10--10--10--10---x--10--|
---9------9---9---9---9---x---8--|
--10-----10--10--10--10---x---9--|
---------------------------------|
---8------8---8---8---8---x---7--|


  E   E  E   E   E   E   E   E   
--------------------------------|
-----10-----10--10--10--10--10--|
------8------8---8---8---8---8--|
------9------9---9---9---9---9--|
--------------------------------|
------7------7---7---7---7---7--|


   E   E  E   E   E   E  E   E   
--------------------------------|
--10--10-----10--10--10-----10--|
---9---9------9---9---9------9--|
--10--10-----10--10--10-----10--|
---0---0------0---0---0------0--|
--------------------------------|


   E   E  E   E   E   E  E   E   
--------------------------------|
--10--10-----10--10--10-----10--|
---9---9------9---9---9------9--|
--10--10-----10--10--10-----10--|
---0---0------0---0---0------0--|
--------------------------------|


   E  E   E   E   E   E   E   E   
---------------------------------|
--10-----10--10--10--10---x--10--|
---9------9---9---9---9---x---8--|
--10-----10--10--10--10---x---9--|
---------------------------------|
---8------8---8---8---8---x---7--|


  E   E  E   E   E   E   E   E                     
--------------------------------|-----|-----|-----|
-----10-----10--10--10--10--10--|-----|-----|-----|
------8------8---8---8---8---8--|-----|-----|-----|
------9------9---9---9---9---9--|-----|-----|-----|
--------------------------------|-----|-----|-----|
------7------7---7---7---7---7--|-----|-----|-----|

2°

S  S  S  S  S  S  S  S  S  S  S  S  S  S  S  S  
--------------------------------------15-15-15-15-|
--13-13-13-13-12-12-12-12-------------------------|
--------------------------14-14-14-14-------------|
--------------------------------------------------|
--------------------------------------------------|
--------------------------------------------------|


   S  S  S  S  S  S  S  S  S  S  S  S  S  S  S  S  
--15-15-15-15-12-12-12-12-12-12-12-12-12-12-12-12-|
--------------------------------------------------|
--------------------------------------------------|
--------------------------------------------------|
--------------------------------------------------|
--------------------------------------------------|


   S  S  S  S  S  S  S  S  S  S  S  S  S  S  S  S  
--------------------------------------15-15-15-15-|
--13-13-13-13-12-12-12-12-------------------------|
--------------------------14-14-14-14-------------|
--------------------------------------------------|
--------------------------------------------------|
--------------------------------------------------|


   S  S  S  S  S  S  S  S  S  S  S  S  S  S  S  S  
--15-15-15-15-12-12-12-12-12-12-12-12-12-12-12-12-|
--------------------------------------------------|
--------------------------------------------------|
--------------------------------------------------|
--------------------------------------------------|
--------------------------------------------------|


   S  S  S  S  S  S  S  S  S  S  S  S  S  S  S  S  
--------------------------------------15-15-15-15-|
--13-13-13-13-12-12-12-12-------------------------|
--------------------------14-14-14-14-------------|
--------------------------------------------------|
--------------------------------------------------|
--------------------------------------------------|


   S  S  S  S  S  S  S  S  S  S  S  S  S  S  S  S  
--15-15-15-15-12-12-12-12-12-12-12-12-12-12-12-12-|
--------------------------------------------------|
--------------------------------------------------|
--------------------------------------------------|
--------------------------------------------------|
--------------------------------------------------|


   S  S  S  S  S  S  S  S  S  S  S  S  S  S  S  S  
--------------12-12-12-12-------------------------|
--15-15-15-15-------------15-15-15-15-13-13-13-13-|
--------------------------------------------------|
--------------------------------------------------|
--------------------------------------------------|
--------------------------------------------------|


   S  S  S  S  S  S  S  S  S  S  S  S  S  S  S  S       
--------------------------------------------------|----|
--13-13-13-13-15-15-15-15-12-12-12-12-12-12-12-12-|----|
--------------------------------------------------|----|
--------------------------------------------------|----|
--------------------------------------------------|----|
--------------------------------------------------|----|

(Outro) 

1° Una vuelta del bajo y luego se toca lo siguiente

                                 W                 
-----|-----|-----|-----|-----|--------------------|
-----|-----|-----|-----|-----|--------------------|
-----|-----|-----|-----|-----|--------------------|
-----|-----|-----|-----|-----|--10----------------|
-----|-----|-----|-----|-----|--------------------|
-----|-----|-----|-----|-----|--------------------|


  W                   W                 
-------------------|-------------------|
-------------------|-------------------|
-------------------|-------------------|
--2----------------|--7----------------|
-------------------|-------------------|
-------------------|-------------------|


  W                   W                 
-------------------|-------------------|
-------------------|-------------------|
-------------------|-------------------|
--0----------------|-------------------|
-------------------|--3----------------|
-------------------|-------------------|


  W                   W                 
-------------------|-------------------|
-------------------|-------------------|
-------------------|-------------------|
-------------------|-------------------|
-------------------|--0----------------|
--0----------------|-------------------|


  W                    E   E   E   E   E   E   E   E   
-------------------|--12--12--12--12--12--12--12--12--|
-------------------|--13--13--13--13--13--13--13--13--|
-------------------|----------------------------------|
-------------------|----------------------------------|
-------------------|----------------------------------|
--0----------------|----------------------------------|


   E   E   E   E   E   E   E   E   
--10--10--10--10--10--10--10--10--|
--12--12--12--12--12--12--12--12--|
----------------------------------|
----------------------------------|
----------------------------------|
----------------------------------|


   E   E   E   E   E   E   E   E   
---8---8---8---8---8---8---8---8--|
--10--10--10--10--10--10--10--10--|
----------------------------------|
----------------------------------|
----------------------------------|
----------------------------------|


   E   E   E   E   E   E   E   E   
---8---8---8---8---8---8---8---8--|
--10--10--10--10--10--10--10--10--|
----------------------------------|
----------------------------------|
----------------------------------|
----------------------------------|


   E   E   E   E   E   E   E   E   
--12--12--12--12--12--12--12--12--|
--13--13--13--13--13--13--13--13--|
----------------------------------|
----------------------------------|
----------------------------------|
----------------------------------|


   E   E   E   E   E   E   E   E   
--10--10--10--10--13--13--13--13--|
--12--12--12--12--13--13--13--13--|
----------------------------------|
----------------------------------|
----------------------------------|
----------------------------------|


   E   E   E   E   E   E   E   E   
---8---8---8---8---8---8---8---8--|
--10--10--10--10--10--10--10--10--|
----------------------------------|
----------------------------------|
----------------------------------|
----------------------------------|


   E   E   E   E   E   E   E   E   
---8---8---8---8---8---8---8---8--|
--10--10--10--10--10--10--10--10--|
----------------------------------|
----------------------------------|
----------------------------------|
----------------------------------|


   E   E   E   E   E   E   E   E   
--12--12--12--12--12--12--12--12--|
--13--13--13--13--13--13--13--13--|
----------------------------------|
----------------------------------|
----------------------------------|
----------------------------------|


   E   E   E   E   E   E   E   E   
--10--10--10--10--10--10--10--10--|
--12--12--12--12--12--12--12--12--|
----------------------------------|
----------------------------------|
----------------------------------|
----------------------------------|


   E   E   E   E   E   E   E   E   
---8---8---8---8---8---8---8---8--|
--10--10--10--10--10--10--10--10--|
----------------------------------|
----------------------------------|
----------------------------------|
----------------------------------|


   E   E   E   E   E   E   E   E   
---8---8---8---8---8---8---8---8--|
--10--10--10--10--10--10--10--10--|
----------------------------------|
----------------------------------|
----------------------------------|
----------------------------------|


   E   E   E   E   E   E   E   E   
--12--12--12--12--12--12--12--12--|
--13--13--13--13--13--13--13--13--|
----------------------------------|
----------------------------------|
----------------------------------|
----------------------------------|


   E   E   E   E   E   E   E   E   
--10--10--10--10--13--13--13--13--|
--12--12--12--12--13--13--13--13--|
----------------------------------|
----------------------------------|
----------------------------------|
----------------------------------|


   E   E   E   E   E   E   E   E   
---8---8---8---8---8---8---8---8--|
--10--10--10--10--10--10--10--10--|
----------------------------------|
----------------------------------|
----------------------------------|
----------------------------------|


   E   E   E   E   E   E   E   E   
---8---8---8---8---8---8---8---8--|
--10--10--10--10--10--10--10--10--|
----------------------------------|
----------------------------------|
----------------------------------|
----------------------------------|


   E  E   E  E   E   E   E   E   
--------------------------------|
--13-----13-----13--13--13--13--|
--------------------------------|
--------------------------------|
--------------------------------|
--------------------------------|


  E   E  E   E   E   E   E   E   
--------------------------------|
-----13-----13--13--13--13--13--|
--------------------------------|
--------------------------------|
--------------------------------|
--------------------------------|


   E  E   E  E   E   E   E   E   
--------------------------------|
--13-----13-----13--13--13--13--|
--------------------------------|
--------------------------------|
--------------------------------|
--------------------------------|


  E   E  E   E   E   E   E   E   
--------------------------------|
-----13-----13--13--13--13--13--|
--------------------------------|
--------------------------------|
--------------------------------|
--------------------------------|


   E  E   E  E   E   E   E   E   
--------------------------------|
--13-----13-----13--13--13--13--|
--------------------------------|
--------------------------------|
--------------------------------|
--------------------------------|


  E   E  E   E   E   E   E   E   
--------------------------------|
-----13-----13--13--13--13--13--|
--------------------------------|
--------------------------------|
--------------------------------|
--------------------------------|


   E  E   E  E   E   E   E   E   
--------------------------------|
--13-----13-----13--13--13--13--|
--------------------------------|
--------------------------------|
--------------------------------|
--------------------------------|


  E   E  E   E   E   E   E   E   
--------------------------------|
-----13-----13--13--13--13--13--|
--------------------------------|
--------------------------------|
--------------------------------|
--------------------------------|


   E   E   E   E   E   E   E   E   
----------------------------------|
--13--13--13--13--13--13--13--13--|
----------------------------------|
----------------------------------|
----------------------------------|
----------------------------------|


   E   E   E   E   E   E   E   E   
----------------------------------|
--13--13--13--13--13--13--13--13--|
----------------------------------|
----------------------------------|
----------------------------------|
----------------------------------|


   E   E   E   E   E   E   E   E   
----------------------------------|
--13--13--13--13--13--13--13--13--|
----------------------------------|
----------------------------------|
----------------------------------|
----------------------------------|


   E   E   E   E   E   E   E   E   
----------------------------------|
--13--13--13--13--13--13--13--13--|
----------------------------------|
----------------------------------|
----------------------------------|
----------------------------------|


   E   E   E   E   E   E   E   E   
----------------------------------|
--13--13--13--13--13--13--13--13--|
----------------------------------|
----------------------------------|
----------------------------------|
----------------------------------|


   E   E   E   E   E   E   E   E   
----------------------------------|
--13--13--13--13--13--13--13--13--|
----------------------------------|
----------------------------------|
----------------------------------|
----------------------------------|


   E   E   E   E   E   E   E   E   
----------------------------------|
--13--13--13--13--13--13--13--13--|
----------------------------------|
----------------------------------|
----------------------------------|
----------------------------------|


   E   E   E   E   E   E   E   E   
----------------------------------|
--13--13--13--13--13--13--13--13--|
----------------------------------|
----------------------------------|
----------------------------------|
----------------------------------|


                        
   H        H           W                       
---------------------|------------------------||
--15--------L--------|------------------------||
--17--------L--------|------------------------||
---------------------|------------------------||
---------------------|------------------------||
---------------------|------------------------||

2°

---|----|----|----|----|----|----|
----|----|----|----|----|----|----|
----|----|----|----|----|----|----|
----|----|----|----|----|----|----|
----|----|----|----|----|----|----|
----|----|----|----|----|----|----|


   Q.      E   E.   E.   E      H        Q    Q     
--------------17---15-------|----------------------|
------------------------17--|----------------------|
--17------17----------------|--17--------L---------|
----------------------------|----------------------|
----------------------------|----------------------|
----------------------------|----------------------|


  Q.      E   E.   E.   E      Q.      E   H         
-------------17---15-------|------------------------|
-----------------------17--|----------17------------|
---------17----------------|--17----------17--------|
---------------------------|------------------------|
---------------------------|------------------------|
---------------------------|------------------------|


   Q    E   E   E.   E.   E      H        Q    Q     
---------------17---15-------|----------------------|
-------------------------17--|----------------------|
---L-------17----------------|--17--------L---------|
-----------------------------|----------------------|
-----------------------------|----------------------|
-----------------------------|----------------------|


  Q.      E   E.   E.   E      Q.      E   H         
-------------17---15-------|------------------------|
-----------------------17--|----------17------------|
---------17----------------|--17----------17--------|
---------------------------|------------------------|
---------------------------|------------------------|
---------------------------|------------------------|


-----------|-----------|-----------|-----------|
-----------|-----------|-----------|-----------|
-----------|-----------|-----------|-----------|
-----------|-----------|-----------|-----------|
-----------|-----------|-----------|-----------|
-----------|-----------|-----------|-----------|


-----------|-----------|-----------|-----------|
-----------|-----------|-----------|-----------|
-----------|-----------|-----------|-----------|
-----------|-----------|-----------|-----------|
-----------|-----------|-----------|-----------|
-----------|-----------|-----------|-----------|


   Q.      E   E.   E.   E      H        Q    Q     
--------------17---15-------|----------------------|
------------------------17--|----------------------|
--17------17----------------|--17--------L---------|
----------------------------|----------------------|
----------------------------|----------------------|
----------------------------|----------------------|


  Q.      E   E.   E.   E      Q.      E   H         
-------------17---15-------|------------------------|
-----------------------17--|----------17------------|
---------17----------------|--17----------17--------|
---------------------------|------------------------|
---------------------------|------------------------|
---------------------------|------------------------|


   Q    E   E   E.   E.   E      H        Q    Q     
---------------17---15-------|----------------------|
-------------------------17--|----------------------|
---L-------17----------------|--17--------L---------|
-----------------------------|----------------------|
-----------------------------|----------------------|
-----------------------------|----------------------|


  Q.      E   E.   E.   E      Q.      E   H         
-------------17---15-------|------------------------|
-----------------------17--|----------17------------|
---------17----------------|--17----------17--------|
---------------------------|------------------------|
---------------------------|------------------------|
---------------------------|------------------------|


   W                    W                 
--------------------|--------------------|
--------------------|--------------------|
--17----------------|--17----------------|
--------------------|--------------------|
--------------------|--------------------|
--------------------|--------------------|


   W                    W                 
--------------------|--------------------|
--------------------|--------------------|
--17----------------|--17----------------|
--------------------|--------------------|
--------------------|--------------------|
--------------------|--------------------|


   W                    W                 
--------------------|--------------------|
--------------------|--------------------|
--17----------------|--17----------------|
--------------------|--------------------|
--------------------|--------------------|
--------------------|--------------------|


   W                    W                 
--------------------|--------------------|
--------------------|--------------------|
--17----------------|--17----------------|
--------------------|--------------------|
--------------------|--------------------|
--------------------|--------------------|


   Q.      E   E.   E.   E      H        Q    Q     
--------------17---15-------|----------------------|
------------------------17--|----------------------|
--17------17----------------|--17--------L---------|
----------------------------|----------------------|
----------------------------|----------------------|
----------------------------|----------------------|


  Q.      E   E.   E.   E      Q.      E   H         
-------------17---15-------|------------------------|
-----------------------17--|----------17------------|
---------17----------------|--17----------17--------|
---------------------------|------------------------|
---------------------------|------------------------|
---------------------------|------------------------|


   Q    E   E   E.   E.   E      H        Q    Q     
---------------17---15-------|----------------------|
-------------------------17--|----------------------|
---L-------17----------------|--17--------L---------|
-----------------------------|----------------------|
-----------------------------|----------------------|
-----------------------------|----------------------|


  Q.      E   E.   E.   E      Q.      E   H         
-------------17---15-------|------------------------|
-----------------------17--|----------17------------|
---------17----------------|--17----------17--------|
---------------------------|------------------------|
---------------------------|------------------------|
---------------------------|------------------------|


   H         H                      
----------------------|-----------||
----------------------|-----------||
--17~--------L--------|-----------||
----------------------|-----------||
----------------------|-----------||
----------------------|-----------||

3°

#Parte final del bajo en guitarra

                  E   E  E   E  E   E  E   E   
-------|-------|------------------------------|
-------|-------|------------------------------|
-------|-------|------------------------------|
-------|-------|------------------------------|
-------|-------|--8------8------8------8------|
-------|-------|-----10-----10-----10-----10--|


  E  E  E  E  E  E  E  E     E  E  E  E  E  E  E  E   
--------------------------|--------------------------|
--------------------------|--------------------------|
--------------------------|--------------------------|
--------------------------|--------------------------|
--7-----7-----7-----7-----|--5-----5-----5-----5-----|
-----8-----8-----8-----8--|-----7-----7-----7-----7--|


  E  E  E  E  E  E  E  E   
--------------------------|
--------------------------|
--------------------------|
--------------------------|
--3-----3-----3-----3-----|
-----5-----5-----5-----5--|


  E   E  E   E  E   E  E   E   
------------------------------|
------------------------------|
------------------------------|
------------------------------|
--8------8------8------8------|
-----10-----10-----10-----10--|


  E  E  E  E  E  E  E  E     E  E  E  E  E  E  E  E   
--------------------------|--------------------------|
--------------------------|--------------------------|
--------------------------|--------------------------|
--------------------------|--------------------------|
--7-----7-----8-----8-----|--5-----5-----5-----5-----|
-----8-----8-----8-----8--|-----7-----7-----7-----7--|


  E  E  E  E  E  E  E  E                           
--------------------------|-------|-------|-------|
--------------------------|-------|-------|-------|
--------------------------|-------|-------|-------|
--------------------------|-------|-------|-------|
--3-----3-----3-----3-----|-------|-------|-------|
-----5-----5-----5-----5--|-------|-------|-------|




Duration Legend
---------------
W - whole
H - half
Q - quarter
E - 8th
S - 16th
T - 32nd
X - 64th
. - note dotted
|-n-|  - n-tuplets


Tablature Legend
----------------
L - tied note
x - dead note
g - grace note
(n) - ghost note
> - accentuded note
NH - natural harmonic
AH - artificial harmonic
TH - tapped harmonic
SH - semi harmonic
PH - pitch harmonic
h - hammer on
p - pull off
b - bend
br - bendRelease
pb - preBend
pbr - preBendRelease
brb - bendReleaseBend
\n/ - tremolo bar dip
\n - tremolo bar dive
-/n - tremolo bar Release up
/n\ - tremolo bar inverted dip
/n - tremolo bar return
-\n - tremolo bar Release down
S - shift slide
s - legato slide
/ -  slide into from below or out of upwards
\ -  slide into from above or out of downwards
~ - vibrato
W - wide vibrato
tr - trill
TP - tremolo picking
T - tapping
S - slap
P - pop
< - fade in
^ - brush up
Добавлено: 26.03.2016
Другие материалы по этой песне:
  • Аккорды и текст

Страница создана 26.03.2016
http://primanota.ru/la-vida-bohme/nicaragua-chords.htm
Привет, Гость.
Предлагаем пройти революционный курс по гитаре.
Подарок от PrimaNota.Ru, забирай!