PrimaNota.ru - самый крупный в мире бесплатный архив песенных текстов, аккордов, табулатур и нот


La Vida Bohme - Hornos De Cal - таба, видео

Регистрация Запомнить меня
Войти через:  Facebook Google Twitter Vk Yandex Mail.ru

La Vida Bohme - Hornos De Cal - таба, видео

Печатать
Просмотров: 67
Intro: C# (x4)

C#
Nos mantendremos despiertos
C#
aunque caiga el sol,
C#
encerrados en nuestro Edén de hormigón.
F#
El diablo en la puerta espera
F#
que rompamos ayuno y
F#                 C#
salgamos por cena.


C#
Se abren poros en el ventanal
C#
con las balas que deja el azar.
F#
"Bañaremos los niños en café,
F#
y guardaremos refugio
F#                    C#
tras techos de papel".

C# (x4)
Ohh..

F#-C# (x4) C#
Ohh..


C#
Las moscas forman nubes en torno al altar,
C#
van de la mano la sombra y el poco pan.
F#
"Pensar es morir sin cena,
F#
nos sembraron el cal bien
F#                      C#
profundo en las venas".


C#
Nuestros pulmones respiran la sal
C#
y se ensanchan hasta explotar.
F#
Nacen nuevos hombres, se hereda la sed,
F#
vivirán enjuagando
F#                C#
sus ojos en café.

C# (x4)
Ohh..

F#-C# (x4) C#
Ohh..

F#-C# (x4)
Por los padres, por los hijos. (x4)


Verso(0:36)
E/----------------------------------------------------------------------/
B/----------------------------------------------------------------------/
G/-----------------------------------------------------------13--10-----/
D/-------10-11-13-15--11-10-11-10----10-11-10-11-10-11--13--------------/
A/----------------------------------------------------------------------/
E/----------------------------------------------------------------------/
                                                                    (x5)

Pre-Coro(01:04)
E/------------/
B/------------/
G/------------/
D/------11----/
A/------------/
E/------------/ (x12)


Coro(01:15)
E/------12-15-17-15-12-----------------------------------/
B/---------------------15---13-15-17-15-12---------------/
G/------------------------------------------14-----------/
D/-------------------------------------------------------/
A/-------------------------------------------------------/
E/-------------------------------------------------------/
                                                      (x4)

Luego se repite todo.
Добавлено: 26.03.2016
Вам также может быть интересно:
Другие материалы по этой песне:
  • Аккорды и текст

Страница создана 26.03.2016
http://primanota.ru/la-vida-bohme/hornos-de-cal-chords.htm
Привет, Гость.
Предлагаем пройти революционный курс по гитаре.
Подарок от PrimaNota.Ru, забирай!