PrimaNota.ru - самый крупный в мире бесплатный архив песенных текстов, аккордов, табулатур и нот


La Vida Bohme - Aún - таба, видео

Регистрация Запомнить меня
Войти через:  Facebook Google Twitter Vk Yandex Mail.ru

La Vida Bohme - Aún - таба, видео

Печатать
Просмотров: 104
Уроки эстрадного вокала в Санкт-Петербурге
Intro:(D)


E/--------------------------------------------------------------------------/
B/------------------------------------------------7-------------------------/
G/---------------------------------------7-7-6-4-6--------------------------/
D/----7-7-9--7-5-7-------7-7-9--7-5-7-------------------7-7-5-4--2-0--------/
A/------------------9-------------------------------------------------------/
E/--------------------------------------------------------------------------/
                                                                      (x3)
D
Ya cansadas mis piernas de tanto caminar,
Bm           A-D    A              D
he dejado la sierra para no volver más.
D
Las rodillas me tiemblan pero no puedo parar,
Bm                   A-D    A
quiero que mis hijos tengan lo que a mí
              D
me quisieron quitar.

Em       G         D          A
Aún hay aún, ¡ay, aún!, ¡ay, aún!
Em       G         D          A
Aún hay aún, ¡ay, aún!, ¡ay, aún!
Em       G         D     A
Aún hay aún, aún, ¡ay, aún!
Em       G         D          A
Aún hay aún, ¡ay, aún!, ¡ay, aún!


E/--------------------------------------------------------------------------/
B/------------------------------------------------7-------------------------/
G/---------------------------------------7-7-6-4-6--------------------------/
D/----7-7-9--7-5-7-------7-7-9--7-5-7-------------------7-7-5-4--2-0--------/
A/------------------9-------------------------------------------------------/
E/--------------------------------------------------------------------------/
                                                                      (x3)
D
Los cobardes se encierran a esperar el final,
Bm                  A-D      A              D
lamen sus heridas mientras otros andan sin sanar.
D
Las rodillas me tiemblan pero no puedo parar,
Bm                    A-D    A
quiero que mis hijos tengan un nombre
       D
que dé orgullo mostrar.

Em       G         D          A
Aún hay aún, ¡ay, aún!, ¡ay, aún!
Em       G         D          A
Aún hay aún, ¡ay, aún!, ¡ay, aún!
Em       G         D     A
Aún hay aún, aún, ¡ay, aún!
Em       G         D          A
Aún hay aún, ¡ay, aún!, ¡ay, aún!


Outro:

E/--------------------------------------------------------------------------/
B/------------------------------------------------7-------------------------/
G/---------------------------------------7-7-6-4-6--------------------------/
D/----7-7-9--7-5-7-------7-7-9--7-5-7-------------------7-7-5-4--2-0--------/
A/------------------9-------------------------------------------------------/
E/--------------------------------------------------------------------------/
Добавлено: 26.03.2016
Другие материалы по этой песне:
  • Аккорды и текст

Страница создана 26.03.2016
http://primanota.ru/la-vida-bohme/aun-chords.htm
Привет, Гость.
Предлагаем пройти революционный курс по гитаре.
Подарок от PrimaNota.Ru, забирай!