PrimaNota.ru - самый крупный в мире бесплатный архив песенных текстов, аккордов, табулатур и нот


La Vela Puerca - Zafar - аккорды и текст, таба, видео

Регистрация Запомнить меня
Войти через:  Facebook Google Twitter Vk Yandex Mail.ru

La Vela Puerca - Zafar - аккорды и текст, таба, видео

Печатать
Просмотров: 154
Уроки эстрадного вокала в Санкт-Петербурге
Zafar
La Vela Puerca
-------------------------------------------------------------------------------
                             ZAFAR - La Vela Puerca
-------------------------------------------------------------------------------
Tabbed by: rlkasper


Tuning: Standart-Tuning

      Am           Am         Dm           G

E|-----0-----0-----0-----0-----1-----1-----3-----3--|
B|-----1-----1-----1-----1-----3-----3-----0-----0--|
G|--------------------------------------------------|
D|--------2-----------2-----------0-----------------|
A|--0-----------0-----------0-----------------0-----|
E|--------------------------------------3-----------|


Am                     Dm               G
 Soy de la ciudad con todo lo que ves
con su ruido, con su gente consume vejez
y no puedo evitar, el humo que entra hoy
pero igual sigo creciendo soy otro carbón
no voy a imaginar, la pena en los demás
compro aire y si es puro pago mucho más
no voy a tolerar, que ya no tengas fe
que se bajen los brazos que no haya lucidez.


       Am     Dm      G
Me voy, volando por ahí
       Am     Dm        G
y estoy, convencido de ir
       Am     Dm             G
me voy, silbando y sin rencor
       Am     Dm         G
y estoy, zafando del olor

        Am                     Dm           G
Me encontré con la gente, que sabe valorar
que de turista en la capital han sabido vagar
y no encarado al fin, la cruda realidad
de respirar hollín, de llorar alquitrán
y empiezo a envejecer, sudando mi verdad
criado pa toser con mucha variedad
y a donde ir a parar cargando con mi olor
deberíamos andar desnudos pa sentirnos mejor

      Am     Dm      G
Me voy, volando por ahí
       Am     Dm        G
y estoy, convencido de ir

me voy, silbando y sin rencor

y estoy, zafando del olor
Добавлено: 06.08.2015
Другие материалы по этой песне:

Страница создана 30.03.2012
http://primanota.ru/la-vela-puerca/zafar-chords.htm
Привет, Гость.
Предлагаем пройти революционный курс по гитаре.
Подарок от PrimaNota.Ru, забирай!