PrimaNota.ru - самый крупный в мире бесплатный архив песенных текстов, аккордов, табулатур и нот


La Tordue - Les Mots - аккорды и текст, видео

Регистрация Запомнить меня
Войти через:  Facebook Google Twitter Vk Yandex Mail.ru

La Tordue - Les Mots - аккорды и текст, видео

Печатать
Просмотров: 91
Уроки эстрадного вокала в Санкт-Петербурге
Les Mots
La Tordue
----------------------------------------------------------------------------------------------------
                               La Tordue - Les Mots
----------------------------------------------------------------------------------------------------

Album : Les Choses de Rien (1995)
Tempo : 3/4 210
E-mail: gwendal.mollo@orange.fr
Tabbed by: newg

Solo : 
e|---------10---12-13-12-----|-13--10h12-10---12h13--12-10-12--|-8-------|
B|-12-13---------------------|---------------------------------|---------|
G|---------------------------|---------------------------------|---------|
D|---------------------------|---------------------------------|---------|
A|---------------------------|---------------------------------|---------|
E|---------------------------|---------------------------------|---------|

e|---------------------------|-13-----12-10-----13---12-10-12--|-8-------|
B|---------------------------|---------------------------------|---------|
G|--5---4---5-7-5------------|---------------------------------|---------|
D|---------------------------|---------------------------------|---------|
A|---------------------------|---------------------------------|---------|
E|---------------------------|---------------------------------|---------|



        C        G         C      C C C
Y'a des mots des masses de mots        
        G                     C   G  Am Am Am Am
Y'a des mots demasiado oh,oh, oh  oh oh                
        Dm         G      G    C
Y'a des mots comm' s'il en pleuvait    
         
        C    G            C      C C C
Y'a des mots comme te quiero
G                         C     G  Am Am Am Am
Y'a des mots c'est des couteaux oh  oh
      Dm              G         C
Que te matan en silencio

     C                     G          C      C C C
Mais pour c'qui a entre sa peau et ma peau  oh  oh
G                         C     G   Am Am Am Am
Y'a pas d'mots, y'a pas d'mots  oh  oh
             Dm      G     C
Qui tiennent ni même celui-là

[Solo]
C G Am Am Am Am
Dm Dm  G C C        X2

C

      C    G         C    C  C C
Et je bois las estrellas  ha ha
    G                           C    G  Am Am Am Am
Qui courent sur les bords de ta peau oh oh 
           Dm          G                  C
C'est du silence a pleuvoir des couteaux  oh


        C        G         C      C C C
Y'a des mots des masses de mots        
        G                     C   G  Am Am Am Am
Y'a des mots demasiado oh,oh, oh  oh oh                
        Dm         G      G    C
Y'a des mots comm' s'il en pleuvait   

Добавлено: 09.12.2015
Другие материалы по этой песне:
  • Аккорды и текст

Страница создана 09.12.2015
http://primanota.ru/la-tordue/les-mots-chords.htm
Привет, Гость.
Предлагаем пройти революционный курс по гитаре.
Подарок от PrimaNota.Ru, забирай!