PrimaNota.ru - самый крупный в мире бесплатный архив песенных текстов, аккордов, табулатур и нот


La Resistencia - Hipocrecia - таба, видео

Регистрация Запомнить меня
Войти через:  Facebook Google Twitter Vk Yandex Mail.ru

La Resistencia - Hipocrecia - таба, видео

Печатать
Просмотров: 158
Hipocrecia
La Resistencia
Written By: Daniel Acuña
http://www.LaResistencia.net/

Intro
E|-----------------------|------------------------|
B|-----------------------|------------------------|
G|-----------------------|------------------------|
D|-----------------------|------------------------| x3
A|----------2------3-2---|----------2-------3-2---|
E|---0--0-3---2-2--------|---0--0-3----2222-------|

E|------------------------|
B|------------------------|
G|------------------------|
D|------------------------| x4
A|----------2-------3-2---|
E|---0--0-3----2222-------|
.........Palm Muted........

Intro Solo
E|---777776-777776-777776-|-101010101010101011010-||---------------|
B|------------------------|-----------------------||---------------|
G|------------------------|-----------------------||---------------|
D|------------------------|-----------------------||---------------|on 2nd
A|------------------------|-----------------------||-8 88 88 88 88-|        
E|------------------------|-----------------------||-6-66-66-66-66-|  

E|-------------------|-------------------|-------------------|-------------|
B|-------------------|-------------------|-------------------|-------------|
G|444444/8-9999998877|444444/8-9999998877|444444/8-9999998877|-------------|
D|-------------------|-------------------|-------------------|-------------|
A|-------------------|-------------------|-------------------|8-88-88-88-88|
E|-------------------|-------------------|-------------------|6-66-66-66-66|

1st Verse / Chorus
E|-5-7-7-7-7-7-7-777-|-5-7-7-7-7-7-7-777-|-5-7-7-7-7-7-7-777-|
B|-6-8-8-8-8-8-8-888-|-6-8-8-8-8-8-8-888-|-6-8-8-8-8-8-8-888-|
G|-7-9-9-9-9-9-9-999-|-7-9-9-9-9-9-9-999-|-7-9-9-9-9-9-9-999-|
D|-7-9-9-9-9-9-9-999-|-7-9-9-9-9-9-9-999-|-7-9-9-9-9-9-9-999-|
A|-5/7-7-7-7-7-7-777-|-5/7-7-7-7-7-7-777-|-5/7-7-7-7-7-7-777-|
E|-------------------|-------------------|-------------------|

E|-------------------|
B|-------------------|
G|-------------------|
D|-------------------| Verse X9
A|---8-88-88-88-88---|
E|---6-66-66-66-66---|

(Pause)

Solo
E|---777777775555-----777777771010101010101010---|
B|---------------7777----------------------------|
G|-----------------------------------------------|
D|-----------------------------------------------| x4
A|-----------------------------------------------|
E|-----------------------------------------------|



Verse / Chorus
E|-5-7-7-7-7-7-7-777-|-5-7-7-7-7-7-7-777-|-5-7-7-7-7-7-7-777-|
B|-6-8-8-8-8-8-8-888-|-6-8-8-8-8-8-8-888-|-6-8-8-8-8-8-8-888-|
G|-7-9-9-9-9-9-9-999-|-7-9-9-9-9-9-9-999-|-7-9-9-9-9-9-9-999-|
D|-7-9-9-9-9-9-9-999-|-7-9-9-9-9-9-9-999-|-7-9-9-9-9-9-9-999-|
A|-5/7-7-7-7-7-7-777-|-5/7-7-7-7-7-7-777-|-5/7-7-7-7-7-7-777-|
E|-------------------|-------------------|-------------------|

E|-------------------|
B|-------------------|
G|-------------------|
D|-------------------| Verse X2
A|---8-88-88-88-88---|
E|---6-66-66-66-66---|

2nd Verse / Chorus
E|-----------------|------------------|------------------|---------------|
B|-----------------|------------------|------------------|---------------|
G|-----------------|------------------|------------------|---------------|
D|-----------------|------------------|------------------|---------------|x4
A|-------2------3-2|-------2-------3-2|-------2------3-2-|-8-88-88-88-88-|
E|0--0-3----2-2----|0--0-3----2222----|0--0-3----2-2-----|-6-66-66-66-66-|

Verse / Chorus
E|-5-7-7-7-7-7-7-777-|-5-7-7-7-7-7-7-777-|-5-7-7-7-7-7-7-777-|
B|-6-8-8-8-8-8-8-888-|-6-8-8-8-8-8-8-888-|-6-8-8-8-8-8-8-888-|
G|-7-9-9-9-9-9-9-999-|-7-9-9-9-9-9-9-999-|-7-9-9-9-9-9-9-999-|
D|-7-9-9-9-9-9-9-999-|-7-9-9-9-9-9-9-999-|-7-9-9-9-9-9-9-999-|
A|-5/7-7-7-7-7-7-777-|-5/7-7-7-7-7-7-777-|-5/7-7-7-7-7-7-777-|
E|-------------------|-------------------|-------------------|

E|-------------------|
B|-------------------|
G|-------------------|
D|-------------------| Verse X2
A|---8---Let Ring----|
E|---6---------------|

Verse / Chorus
E|-5-7-7-7-7-7-7-777-|-5-7-7-7-7-7-7-777-|-5-7-7-7-7-7-7-777-|
B|-6-8-8-8-8-8-8-888-|-6-8-8-8-8-8-8-888-|-6-8-8-8-8-8-8-888-|
G|-7-9-9-9-9-9-9-999-|-7-9-9-9-9-9-9-999-|-7-9-9-9-9-9-9-999-|
D|-7-9-9-9-9-9-9-999-|-7-9-9-9-9-9-9-999-|-7-9-9-9-9-9-9-999-|
A|-5/7-7-7-7-7-7-777-|-5/7-7-7-7-7-7-777-|-5/7-7-7-7-7-7-777-|
E|-------------------|-------------------|-------------------|

E|-------------------|
B|-------------------|
G|-------------------|
D|-------------------| Verse X2
A|---8-88-88-88-88---|
E|---6-66-66-66-66---|

End on
E|-------|
B|-------|
G|-------|
D|---9---|
A|---7---|
E|-------|

Great song. some effects such as wah pedal and distortion are needed in some parts

Tabs Written my Daniel Acuña, Took me the whole night to write these tabs but i
did them all by myself so enjoy.
Добавлено: 27.02.2012
Вам также может быть интересно:
Другие материалы по этой песне:
  • Аккорды и текст

Страница создана 27.02.2012
http://primanota.ru/la-resistencia/hipocrecia-chords.htm
Привет, Гость.
Предлагаем пройти революционный курс по гитаре.
Подарок от PrimaNota.Ru, забирай!