PrimaNota.ru - самый крупный в мире бесплатный архив песенных текстов, аккордов, табулатур и нот


La Renga - Noche Vudú - таба, бас-таба, видео

Регистрация Запомнить меня
Войти через:  Facebook Google Twitter Vk Yandex Mail.ru

La Renga - Noche Vudú - таба, бас-таба, видео

Печатать
Просмотров: 91
Новый альбом группы 'Черный Кузнец' по культовому сериалу 'Сверхъестественное'!
INTRO;
GUITARRA:

intro
|------------------------------------------
|-----------------1/2--2-1--1--------------
|-2---------------1/2--2-1--1-0------------
|-0--0-4-0-5-0-4----------------5-3--0----x4
|------------------------------------------
|------------------------------------------

la ultima hace asi:

-------------------------------------
--------------6/5--2-----------------
--------------6/5--2-----------2-----
-0-4-0-5-0-4-----------3--0-3--0-----
-------------------------------------
-------------------------------------

despues hace riff 1 x4


riff 1
|----------------------------------
|------------1/2-2-1-1-------------
|------------1/2-2-1-1-0-----------
|-0-4-0-5-0--------------5-3-0-----
|----------------------------------
|----------------------------------

riff 2
|----------------------------------
|----------------------------------
|----------------------------------
|----------------------------------
|--------2-2-2-3-3-3h5p3h5p3h5-----
|--3-3-3---------------------------

riff 3
|---------------------------------
|---------------------------------
|---------------------------------
|---------------------------------
|-------4-4-4-5-5-5h7p5h7p5h7p5---
|-5-5-5---------------------------

riff 4
|------------------------
|------------------------
|------------------------
|--7-7-5h7p5-------------
|------------5-----------
|------------------------

riff 5
|---------------------
|---------------------
|---------------------
|-5-5-3h5p3-----------
|-----------5---------
|---------------------

todo sobre
Riff 1
Había un lugar olvidado por Dios,
y a causa de eso pudrieron lograr
que el sacerdocio formara un club,
donde se toca y baila Rocanrol.

Riff 2
Sin tantas leyes para la abstencion
de trago en trago bajaba el buffet,
Riff 3
enloquecia y sin contencion,
se perfilaba la Noche Vudú.

Riff 1
No había muerto sin revivir,
ni sacrificio falto en el altar,
absorto en el trance aquel tren
viaja ala rito me la perdicion.

Riff 2
Hasta que un dia alguien vino a moldear
un vaticano con un cabaret,
Riff 3
lleno de oro y con libros de amor,
se puso en claro quien tenía el poder.

SOLO;

|-9/10-10-9/10-10-9/10-10---10-10---10-10-----10-----------------
|-9/10-10-9/10-10-9/10-10---10-10---10-10-10--10---12p10-12-10~~-
|-------------------------12------12------12b------12p10-12-10~~-
|----------------------------------------------------------------
|----------------------------------------------------------------
|----------------------------------------------------------------

--------------------------------------------
-12p10-12p10-12p10---12p10-12p10-10---------
-12p10-12p10-12p10---12p10-12p10-10---------
--------------------------------------------
--------------------------------------------
--------------------------------------------

-------------------------------------------
----13-------------------------------------
-12b---12b-12b-12br--10-12-12br--12~*~-----
-------------------------------------------
-------------------------------------------
-------------------------------------------

-----------------------------------17b-17b-17b-17b--17br-15--
----15-15-15---15-15-15---15-15-15---------------------------
-14b--------14b---------14b----------------------------------
-------------------------------------------------------------
-------------------------------------------------------------
-------------------------------------------------------------

-------------------------------------------------
-----------------7-8-9-10-10-9-8-7---------------
--------6-7-8-9--------------------9-8-7---------
-----7-----------------------------------9-7-----
-------------------------------------------------
-------------------------------------------------
     tr......................................

riff4 x4
riff5 x4
riff1 x4


Riff 1
Al hombre no le puede engañar
y hay que ajustarlo con la prohibicion,
debe saber quien lo va a perdonar,
por el pecado que cometió.

Riff 2
Ahora que el mundo se siente tan bien,
y puso sus penas en esta prisión,
Riff 3
hay muchos fieles que quisieran saber,
donde festejan la Noche Vudu.

SOLO;
ARMÓNICA: Riff 1 x4
          Riff 2 x2
          Riff 3 x2
          Riff 4 x4
          Riff 5 x4
          Riff 1 x4

en el final hace algo asi

----------------------10-------
-4b^^-2-4b^^----------10-------
-------------------------------
-------------------------------
-------------------------------
-------------------------------


jojo, quedo bien no? espero que si, bueno cualquier duda
contactenme a genaronm_09@
Добавлено: 18.10.2014
Другие материалы по этой песне:
  • Аккорды и текст

Страница создана 08.09.2014
http://primanota.ru/la-renga/noche-vudu-chords.htm
Привет, Гость.
Предлагаем пройти революционный курс по гитаре.
Подарок от PrimaNota.Ru, забирай!