PrimaNota.ru - самый крупный в мире бесплатный архив песенных текстов, аккордов, табулатур и нот


La Renga - La Balada Del Diablo Y De La Muerte - таба, видео

Регистрация Запомнить меня
Войти через:  Facebook Google Twitter Vk Yandex Mail.ru

La Renga - La Balada Del Diablo Y De La Muerte - таба, видео

Печатать
Просмотров: 73
the intro is the base of old song......enjoy 
INTRO:
1|-----0----------------------3h2-------------------|
2|-----0----------------------3---------------------|
3|-----0--------------------2-----0--2-2------------|
4|-----2------0--0h2h0------0-----0--2-2--2-2h4h2---|
5|---2----------------2h0-----------------------4/2-|
6|-0------2-3---------------------------------------|

ESTRIBILLO:
1|--------------------------|--------------------------|---|---|
2|--------------------------|--------------------------|---|---|
3|--------------------------|--7----7--x-x-------------|---|---|
4|--2----2--x-x-5----5--x-x-|--7----7--x-x-7----7--x-x-|---|---|
5|--2----2--x-x-5----5--x-x-|--5----5--x-x-7----7--x-x-|---|---|
6|--0----0--x-x-3----3--x-x-|--------------5----5--x-x-|---|---|
                                                     
1|--------------------------|--------------------------|
2|--------------------------|--------------------------|
3|--------------5----5--x-x-|--------------7----7------|
4|--7----7--x-x-5----5--x-x-|--5----5--x-x-7----7--x-x-|
5|--7----7--x-x-3----3--x-x-|--5----5--x-x-5----5--x-x-|
6|--5----5--x-x-------------|--3----3--x-x---------x-x-|
                                                   
1|--------------------------|--------------------------|
2|--------------------------|--------------------------|
3|--------------5----5--x-x-|--------------7----7------|
4|--7----7--x-x-5----5--x-x-|--5----5--x-x-7----7--x-x-|
5|--7----7--x-x-3----3--x-x-|--5----5--x-x-5----5--x-x-|
6|--5----5--x-x-------------|--3----3--x-x---------x-x-|
                                                     
1|--------------------------|--------------------------|
2|--------------------------|--------------------------|
3|--------------5----5--x-x-|--------------------------|
4|--7----7--x-x-5----5--x-x-|--5----5--x-x-5----5--x-x-|
5|--7----7--x-x-3----3--x-x-|--5----5--x-x-5----5--x-x-|
6|--5----5--x-x-------------|--3----3--x-x-3----3--x-x-|

SOLO:
1|-----------------------|--------------------------|
2|-----------------------|--10b-----------10b--10h8h|
3|------------------9----|--------------------------|
4|-----------------------|--------------------------|
5|-----------------------|--------------------------|
6|-----------------------|--------------------------|
                                                               
1|-------------------------------|------------------------------|
2|--10-----8-7-8----8/15/--------|------------------------------|
3|-----------------------9-------|--9----9--------7----9--------|
4|-------------------------8h7---|----------8h7-----------8-7---|
5|-----------------------------9-|--------------9-------------9-|
6|-------------------------------|------------------------------|
                                                               
1|------------------------------|-----------10------------------|
2|--------------------------8-8-|--8---10b------10b---10b--10-8-|
3|------------------------9-----|-------------------------------|
4|--7---5-7-5-7-7b--7-5-7-------|-------------------------------|
5|------------------------------|-------------------------------|
6|------------------------------|-------------------------------|
                                
1|-----------------10------------|
2|--10----8--7--8-----8--7--8--7-|
3|-------------------------------|
4|-------------------------------|
5|-------------------------------|
6|-------------------------------|
                                                                           
1|--10-7-----10-7-----10-7-----10-7-----10-7-----10-7-----10-7-----10-7-----|
2|-------8-7------8-7------8-7------8-7------8-7------8-7------8-7------8-7-|
3|--------------------------------------------------------------------------|
4|--------------------------------------------------------------------------|
5|--------------------------------------------------------------------------|
6|--------------------------------------------------------------------------|
                                                
1|--10-7-----10-7-----10-7-----10-7-----12--------|
2|-------8-7------8-7------8-7------8-7-----------|
3|------------------------------------------------|
4|------------------------------------------------|
5|------------------------------------------------|
6|------------------------------------------------|
                                                
1|--------------------------------------------------|
2|--10-10-10-10-12-12-12-12-13-13-13-13-12-12-12-12-|
3|--------------------------------------------------|
4|--------------------------------------------------|
5|--------------------------------------------------|
6|--------------------------------------------------|
                                                   
1|--------------------------------------------------|
2|--10-10-10-10-12-12-12-12-13-13-13-12-12-12-12-12-|
3|--------------------------------------------------|
4|--------------------------------------------------|
5|--------------------------------------------------|
6|--------------------------------------------------|
                                                            
1|--12--14--15--14--12--15b-------|--15--17--17b-----17b-----|
2|----------------------------17--|--------------------------|
3|--------------------------------|--------------------------|
4|--------------------------------|--------------------------|
5|--------------------------------|--------------------------|
6|--------------------------------|--------------------------|
                                                       
1|--17--15--17r---15----------|--15----------------------|
2|----------------------17----|--------17r---15----------|
3|----------------------------|--------------------16----|
4|----------------------------|--------------------------|
5|----------------------------|--------------------------|
6|----------------------------|--------------------------|
                                                        
1|--------------------------|--12----------------||
2|--15----17----------------|--12----------------||
3|--------------------------|--12----------------||
4|--------------------------|--------------------||
5|--------------------------|--------------------||
6|--------------------------|--------------------||
Добавлено: 07.11.2013
Другие материалы по этой песне:
  • Аккорды и текст

Страница создана 07.11.2013
http://primanota.ru/la-renga/la-balada-del-diablo-y-de-la-muerte-chords.htm
Привет, Гость.
Предлагаем пройти революционный курс по гитаре.
Подарок от PrimaNota.Ru, забирай!