PrimaNota.ru - самый крупный в мире бесплатный архив песенных текстов, аккордов, табулатур и нот


La Polla Records - Toda La Puta Vida Igual - таба, видео

Регистрация Запомнить меня
Войти через:  Facebook Google Twitter Vk Yandex Mail.ru

La Polla Records - Toda La Puta Vida Igual - таба, видео

Печатать
Просмотров: 98
toda la puta vida igual


la polla records


TRANSCRIBED BY RUDY GUZMAN


guzman_84@hotmail.com


  gt1
e:--------2-2-2-2-2-----3-3-3-3-3-3-3-3-|
B:-3--3-3-3-3-3-3-3-----3-3-3-3-3-3-3-3-|
G:-2--2-2-2-2-2-2-2---0-0-0-0-0-0-0-0-0-|
D:-0--0-0-0-0-0-0-0---0-0-0-0-0-0-0-0-0-|
A:--------------------0-0-0-0-0-0-0-0-0-|
E:--------------------3-3-3-3-3-3-3-3-3-|
  gt2                                            
e:--------------------------------------|
B:--------------------------------------|
G:-7--7-7-7-7-7-7-7---------------------|
D:-7--7-7-7-7-7-7-7---5-x-5-5-5-5-5-5-5-|
A:-5--5-5-5-5-5-5-5---5-x-5-5-5-5-5-5-5-|
E:--------------------3-x-3-3-3-3-3-3-3-|

  gt1
e:------------2-2-2-------------3-3-3-3-|
B:-3--3-3-3-3-3-3-3-------------3-3-3-3-|
G:-2--2-2-2-2-2-2-2---0-0-0-0-0-0-0-0-0-|
D:-0--0-0-0-0-0-0-0---0-0-0-0-0-0-0-0-0-|
A:--------------------0-0-0-0-0-0-0-0-0-|
E:--------------------3-3-3-3-3-3-3-3-3-|
  gt2
e:--------------------------------------|
B:--------------------------------------|
G:-7--7-7-7-7-7-7-7---------------------|
D:-7--7-7-7-7-7-7-7---5-5-5-5-5-5-5-5-5-|
A:-5--5-5-5-5-5-5-5---5-5-5-5-5-5-5-5-5-|
E:--------------------3-3-3-3-3-3-3-3-3-|

  toda la puta vida igual...
e:--------------------------------------|
B:--------------------------------------|
G:-7--7-7-7-7-7-7-7---------------------|
D:-7--7-7-7-7-7-7-7---5-5-5-5-5-5-5-5-5-|
A:-5--5-5-5-5-5-5-5---5-5-5-5-5-5-5-5-5-|
E:--------------------3-3-3-3-3-3-3-3-3-|

e:--------------------------------------|
B:--------------------------------------|
G:-7--7-7-7-7-7-7-7---------------------|
D:-7--7-7-7-7-7-7-7---5-x-5-5-5-5-5-5-5-|
A:-5--5-5-5-5-5-5-5---5-x-5-5-5-5-5-5-5-|
E:--------------------3-x-3-3-3-3-3-3-3-|

e:--------------------------------------|
B:--------------------------------------|
G:-7--7-7-7-7-7-7-7---------------------|
D:-7--7-7-7-7-7-7-7---5-5-5-5-5-5-5-5-5-|
A:-5--5-5-5-5-5-5-5---5-5-5-5-5-5-5-5-5-|
E:--------------------3-3-3-3-3-3-3-3-3-|

  toda la puta vida igual...
e:--------------------------------------|
B:--------------------------------------|
G:-7--7-7-7-7-7-7-7---------------------|
D:-7--7-7-7-7-7-7-7---5-5-5-5-5-5-5-5-5-|
A:-5--5-5-5-5-5-5-5---5-5-5-5-5-5-5-5-5-|
E:--------------------3-3-3-3-3-3-3-3-3-|

                           que divertido
e:--------------------------|
B:--------------------------|
G:-7--7-7-7-7-7-7-7---------|
D:-7--7-7-7-7-7-7-7---5-5-5-|
A:-5--5-5-5-5-5-5-5---5-5-5-|
E:--------------------3-3-3-|


hillo son mex

6/08/12
Добавлено: 14.10.2013
Другие материалы по этой песне:
  • Аккорды и текст

Страница создана 14.10.2013
http://primanota.ru/la-polla-records/toda-la-puta-vida-igual-chords.htm
Привет, Гость.
Предлагаем пройти революционный курс по гитаре.
Подарок от PrimaNota.Ru, забирай!