PrimaNota.ru - самый крупный в мире бесплатный архив песенных текстов, аккордов, табулатур и нот


La Polla Records - Noche Incierta - аккорды и текст, видео

Регистрация Запомнить меня
Войти через:  Facebook Google Twitter Vk Yandex Mail.ru

La Polla Records - Noche Incierta - аккорды и текст, видео

Печатать
Просмотров: 130
Noche Incierta
La Polla Records
Notas

   E   G   G*  C   D   B   A
E-----------------------------|
B-----------------------------|
G--9---7-------5---7---4------|
D--9---5---5---3---5---4---7--|
A--7-------5---3---5---2---7--|
E----------3---------------5--|

Intro:

E-------------|
B-------------|
G--7--7--7-9--|
D--7--7--7-9--|  (x2)
A--5--5--5-7--|
E-------------|

   E                G            D               C D
E---------------------------------------------------------------------|
B---------------------------------------------------------------------|
G--9-9-9-9-9-9-9-9--7-7-7-7-7-7--7-7-7-7-7-7--7--5-7-7-7-7-7-7-7-7----|
D--9-9-9-9-9-9-9-9--5-5-5-5-5-5--7-7-7-7-7-7--7--5-7-7-7-7-7-7-7-7----| (x4)
A--7-7-7-7-7-7-7-7---------------5-5-5-5-5-5--5--3-5-5-5-5-5-5-5-5----|
E---------------------------------------------------------------------|

Coro:
-----------
C            D-C
Dónde me lleva la noche incierta


Verso:
--------
E         G              D        C-D
Voy en la lancha con las luces apagadas
E         G             D          C-D
llevo un paquete que contiene una sustancia ilegal
E            G            D           C-D
ni el que me espera en la orilla es Jesucristo
E         G              D
ni yo soy Pedro el pescador

me cago en Dios

Estribillo:
-----------
C            D-C
Dónde me lleva la noche incierta

Cambio:
-------
A C D C-D (x2)

Verso:
------
E           G            D     C-D
Con el dinero que me rinda la fariña
E           G            D         C-D
mejoraré mi situación y la de mi familia
E           G              D           C-D
y aunque la tía que me espera no es la virgen
E           G           D
yo también soy hijo de dios

Estribillo:
-----------
C            D-A                B-G*
Dónde me lleva la noche incierta
                  D    C-D
en mi barquito de motor
A            B-C                C-G*
Dónde me lleva la noche incierta
                  D    C-D
en mi barquito de motor

Interludio/Solo:
----------------
E G D C-D (x4)

Estribillo:
-----------
C            D-A                B-G*
Dónde me lleva la noche incierta
                  D    C-D
en mi barquito de motor

A B-C C-G*...
D E... E
Добавлено: 17.07.2012
Другие материалы по этой песне:
  • Аккорды и текст

Страница создана 17.07.2012
http://primanota.ru/la-polla-records/noche-incierta-chords.htm
Привет, Гость.
Предлагаем пройти революционный курс по гитаре.
Подарок от PrimaNota.Ru, забирай!