PrimaNota.ru - самый крупный в мире бесплатный архив песенных текстов, аккордов, табулатур и нот


La Polla Records - Carne Pa La Picadora - таба, видео

Регистрация Запомнить меня
Войти через:  Facebook Google Twitter Vk Yandex Mail.ru

La Polla Records - Carne Pa La Picadora - таба, видео

Печатать
Просмотров: 140
                         CARNE PA LA PICADORA
                           LA POLLA RECORDS
                         CARNE PA LA PICADORA

HECHA POR: VALKOV
KOMENTARIOZ, ZALUDOZ, MENTADAZ D MADRE, O LO Q ZEA:
saint_jimmyjj@hotmail.com


INTRO/VERSO 1:
e|----|-----------------|-----------------|-----------------|
B!----|-----------------|-----------------|-----------------|
G|----|-7---------------|-----------------|-----------------|
D|----|-7-7-7-7-7-7-7-7-|-3---------------|-8---------------|
A|----|-5-5-5-5-5-5-5-5-|-3-3-3-3-3-3-3-3-|-8-8-8-8-8-8-8-8-|
E|----|-----------------|-1-1-1-1-1-1-1-1-|-6-6-6-6-6-6-6-6-|
  Este silencio solo en la primera vez de la Intro

e|-----------------| SE REPITE TODO ESO 7 VECES*(3 Intro, 4 Verso)*
B!-----------------|
G|-----------------|
D|-7---------------|
A|-7-7-7-7-7-7-7-7-|
E|-5-5-5-5-5-5-5-5-|

VIDA DE SUPERVIVIENTE:
e|------------------|-------------------------| x3
B!------------------|-------------------------|
G|-7----------------|-10----------------------|
D|-7-7-7-7-7-7-7-7--|-10-10-10-10-10-10-10-10-|
A|-5-5-5-5-5-5-5-5--|--8--8--8--8--8--8--8--8-|
E|------------------|-------------------------|

LA RUEDA SIGUE       Y SE ACABÓ LA JUVENTUD 
e|-------------------|-----------------|
B!-------------------|-----------------|
G|-------------------|-----------------|
D|-8-----------------|-7---------------|
A|-8-8-8-8-8--8--8-8-|-7-7-7-7-7-7-7-7-|
E|-6-6-6-6-6-6-6-6-6-|-5-5-5-5-5-5-5-5-|

SOLO 1: (guitarra dos toca el riff de la intro 2 veces)
e|---------------|-----------------|--------------5-|-6-5-3--------|x2
B!6-5-6-5-6-5-6-3|-6-5-6-5-6-5-5-3-|6-5-6-5-6-5-6---|-------6-5-6-5|
G|---------------|-----------------|----------------|--------------|
D|---------------|-----------------|----------------|--------------|
A|---------------|-----------------|----------------|--------------|
E|---------------|-----------------|----------------|--------------|

VERSO 2:
  Ahora me pongo     Con metadona        Y me repongo 
e|-----------------|-----------------|-----------------|
B|-----------------|-----------------|-----------------|
G|-7---------------|-----------------|-----------------|
D|-7-7-7-7-7-7-7-7-|-3---------------|-8---------------|
A|-5-5-5-5-5-5-5-5-|-3-3-3-3-3-3-3-3-|-8-8-8-8-8-8-8-8-|
E|-----------------|-1-1-1-1-1-1-1-1-|-6-6-6-6-6-6-6-6-|
  De todo lo que hay
e|------------------| SE REPITE TODO ESO 4 VECES**
B!------------------|
G|------------------|
D|-7----------------|
A|-7-7-7-7-7-7-7-7--|
E|-5-5-5-5-5-5-5-5--|



SOLO 2: 
e|---------------|-----------------|--------------5-|-6-5-3--------|
B!6-5-6-5-6-5-6-3|-6-5-6-5-6-5-5-3-|6-5-6-5-6-5-6---|-------6-5-6-5|
G|---------------|-----------------|----------------|--------------|
D|---------------|-----------------|----------------|--------------|
A|---------------|-----------------|----------------|--------------|
E|---------------|-----------------|----------------|--------------|

e|---------------|-----------------|--------------5-|-5-7b-5-7b-5-7b-5-|
B!6-5-6-5-6-5-6-3|-6-5-6-5-6-5-5-3-|6-5-6-5-6-5-6---|------------------|
G|---------------|-----------------|----------------|------------------|
D|---------------|-----------------|----------------|------------------|
A|---------------|-----------------|----------------|------------------|
E|---------------|-----------------|----------------|------------------|
CAMBIO:
e|-----------------|-----------------|---------------------|
B!-----------------|-----------------|---------------------|
G|-----------------|-----------------|-10------------------|
D|-7-7-7-7-7-7-7-7-|-7-7-7-7-7-7-7-7-|-10-10-10-10-9-9-9-9-|
A|-5-5-5-5-5-5-5-5-|-5-5-5-5-5-5-5-5-|--8--8--8--8-7-7-7-7-|
E|-----------------|-----------------|---------------------|

e|-----------------| SE REPITE TODO EL CAMBIO 2 VECES
B!-----------------|
G|-----------------|
D|-----------------|
A|-8-8-8-8-7-7-7-7-|
E|-6-6-6-6-5-5-5-5-|

SOLO 3:
e|-----------------|-----------------|
B!-----------------|-----------------|
G|-7---------------|-----------------|
D|-7-7-7-7-7-7-7-7-|-7-7-7-7-7-7-7-7-|
A|-5-5-5-5-5-5-5-5-|-5-5-5-5-5-5-5-5-|
E|-----------------|-----------------|
                        
e|-------------|--------------|-------------|-5b-5b-5----|
B!-------------|--------------|-3-6-6-6-5-6-|------------|
G|-------------|---------2b---|-------------|------------|
D|---------3---|---3-3-3----3-|-------------|------------|
A|-5-----3---5-|-5------------|-------------|------------|
E|---5-5-------|--------------|-------------|------------|

e|-------------|--------------|-------6-6-6-6-6-|
B!-------------|--------------|-3-6-6-6-6-6-6-6-|
G|-------------|---------2b---|-----------------|
D|---------3---|---3-3-3----3-|-----------------|
A|-5-----3---5-|-5------------|-----------------|
E|---5-5-------|--------------|-----------------|

e|-3-3-5--3-3-5--3-3-5--3-3-5-|
B!-3-3-5--3-3-5--3-3-5--3-3-5-|
G|----------------------------|
D|----------------------------|
A|----------------------------|
E|----------------------------|

CORO FINAL:
e|-----------------|-----------------|-----------------|
B|-----------------|-----------------|-----------------|
G|-7---------------|-----------------|-----------------|
D|-7-7-7-7-7-7-7-7-|-3---------------|-8---------------|
A|-5-5-5-5-5-5-5-5-|-3-3-3-3-3-3-3-3-|-8-8-8-8-8-8-8-8-|
E|-----------------|-1-1-1-1-1-1-1-1-|-6-6-6-6-6-6-6-6-|

e|-----------------|-----------------|-----------------|
B|-----------------|-----------------|-----------------|
G|-7---------------|-----------------|-----------------|
D|-7-7-7-7-7-7-7-7-|-3---------------|-8---------------|
A|-5-5-5-5-5-5-5-5-|-3-3-3-3-3-3-3-3-|-8-8-8-8-8-8-8-8-|
E|-----------------|-1-1-1-1-1-1-1-1-|-6-6-6-6-6-6-6-6-|

e|------------------| SE REPITE TODO ESO 2 VECES**
B!------------------|
G|------------------|
D|-7----------------|
A|-7-7-7-7-7-7-7-7--|
E|-5-5-5-5-5-5-5-5--|

OUTRO:
e|------------------|------------------|x2
B!------------------|------------------|
G|------------------|------------------|
D|-7-7-7-7-7-7-7-7--|-7-7-7-7-7-7-7----|
A|-5-5-5-5-5-5-5-5--|-5-5-5-5-5-5-5-7--|
E|------------------|---------------5--|
e|---|
B!---|
G|-7-|
D|-7-|
A|-5-|
E|---|


LETRA:
CARNE PA LA PICADORA!!!
HACE YA TIEMPO QUE SE ACABO
EL NECIO SUEÑO DE UNA VIDA FELIZ
NUNCA TENDREMOS UN SALVADOR
QUE NOS REGALE OTRA OPORTUNIDAD
DAME LO MEJOR QUE TENGO
QUE OLVIDAR TODAS MI PELLAS
Y ALGUN QUE OTRO MARRON 
SOLO COLOCAO SE CALMA ESTE DOLOR 
QUE TANTO AGOBIA MI CUERPO TERRENAL

VIDA DE SUPERVIVIENTE
Y METERSE ALGO DECENTE
VIDA DE SUPERVIVIENTE
LA RUEDA SIGUE Y SE ACABO LA JUVENTUD

AHORA ME PONGO CON METADONA Y CUANDO PUEDO
DE TODO LO QUE HAY 
ERES MUY LIBRE SI QUIERES CONFIAR 
SOLO UN AMIGO TE PUEDE TRAICIONAR

LA CULPABLE DE MI RUINA ES LA SOCIEDAD
QUE CUANDO MEJOR ESTOY SE ACABA EL MATERIAL

ALEGRIA!!!!

CARNE PA LA PICADORA
Y QUE MAS DA
LA CULPABLE DE MI RUINA ES LA SOCIEDAD!!!!!!!
QUE CUANDO MEJOR ESTOY SE ACABA EL MATERIAL!!!!!!!!



Добавлено: 14.04.2012
Другие материалы по этой песне:

Страница создана 10.04.2012
http://primanota.ru/la-polla-records/carne-pa-la-picadora-chords.htm
Привет, Гость.
Предлагаем пройти революционный курс по гитаре.
Подарок от PrimaNota.Ru, забирай!