PrimaNota.ru - самый крупный в мире бесплатный архив песенных текстов, аккордов, табулатур и нот


La Noire - I Alway Kill The Things I Love - бас-таба, видео

Регистрация Запомнить меня
Войти через:  Facebook Google Twitter Vk Yandex Mail.ru

La Noire - I Alway Kill The Things I Love - бас-таба, видео

Печатать
Просмотров: 133
Уроки эстрадного вокала в Санкт-Петербурге
“I Always Kill the Things I Love”
Bass Tab


INTRO
G--------------------------------------------------------------|
D-5------------------------------------------------------------|
A---5-7-5-3-5-3-7-5--------------------------------------------|
E------------------3-------------------------------------------|

VERSE 1                  CHORUS
G--------4----------|-------------------------------------------|
D-------5-----------|--8----------------------------------------|
A-3-7-5-------5--5--|--------3---5-3----------------------------|
E---------0-5---3-3-|8---5-4---5--3-----------------------------|
                                      cause I always kill...
VERSE 2
G-----------------|--------------------------------------------|
D-----------------|-CHORUS AGAIN-------------------------------|
A-377-5-------5---|--------------------------------------------|
E-------3-0-5---3-|--------------------------------------------|

BRIDGE
G---------------------------------------------------------------|
D---------------------2--5-3-2-1--------------------------------|
A----3-----------5--5-------------------------------------------|
E-1---1--13--35----3--------------------------------------------|

SAX SOLO
G--------------------------------------------------------------|
D--------------------------------------------------------------|
A-3-7-5-------5-----------3---5-3------------------------------|
E-------3-0-5---3-8-6-5-4---5--3-------------------------------|

Repeat Verse (by now you get the gist of it)
Repeat Chorus x2
end
Добавлено: 01.06.2013
Другие материалы по этой песне:
  • Аккорды и текст

Страница создана 01.06.2013
http://primanota.ru/la-noire/i-alway-kill-the-things-i-love-chords.htm
Привет, Гость.
Предлагаем пройти революционный курс по гитаре.
Подарок от PrimaNota.Ru, забирай!