PrimaNota.ru - самый крупный в мире бесплатный архив песенных текстов, аккордов, табулатур и нот


La Mississippi - Ella - таба, видео

Регистрация Запомнить меня
Войти через:  Facebook Google Twitter Vk Yandex Mail.ru

La Mississippi - Ella - таба, видео

Печатать
Просмотров: 22
-------------------------------------------------------------------------------
                             Ella - La Mississippi
-------------------------------------------------------------------------------
Tabbed by: Costa Alejandro
E-mail: alejandro.r.costa@gmail.com


                         SOLO
                       --------

   Parte A

e|------------------------|--------------5---------|  Repite Parte A
B|--------------5---------|------------------------|
G|----------5/6---5/6\5---|----------5/6---5/6\5---|
D|------5/7-------------7-|------5/7-------------7-|
A|--5/7-------------------|--5/7-------------------|
E|------------------------|------------------------|






e|-----------------------------------------------------|  Repite Parte A
B|-----------------------------------------------------|
G|-----------------------------------------------------|
D|------10-9-7---7-9/10-9-7-----7-9-10-9-7----7-9/10-9-|
A|-7-10--------9--------------9-------------9----------|
E|-----------------------------------------------------|





           -LetRing-                    -LetRing-         -Let Ring-
e|------------------------------------------------|-----------------|
B|------------------------------------------------|-----------------|
G|---------6b-------4----------4-6-----4----------|-------6b------4-|
D|-----5/7---------------4-5-7-------7---7--------|-4-5-7-----------|
A|-5/7--------------------------------------------|-----------------|
E|------------------------------------------------|-----------------|





         
e|-----5-------------------|-----5------------------------|
B|-4/5--------5------------|-4/5--------5-----------------|
G|--------5/6--------------|--------5/6-------------------|
D|---------------4/5-7-7-7-|---------------4/5-7-7---5-6--|
A|-------------------------|------------------------------|
E|-------------------------|------------------------------|



        b = Bending
        / = Arrastre Ascendente
        \ = Arrastre Descendente
        LetRing = Queda sonando

           Este es un Solo muy sencillo, pero muy bueno. Espero que lo disfruten.
            Alejandro Costa.
Добавлено: 28.12.2015
Другие материалы по этой песне:
  • Аккорды и текст

Страница создана 28.12.2015
http://primanota.ru/la-mississippi/ella-chords.htm
Привет, Гость.
Предлагаем пройти революционный курс по гитаре.
Подарок от PrimaNota.Ru, забирай!