PrimaNota.ru - самый крупный в мире бесплатный архив песенных текстов, аккордов, табулатур и нот


La Luz - Damp Face - таба, видео

Регистрация Запомнить меня
Войти через:  Facebook Google Twitter Vk Yandex Mail.ru

La Luz - Damp Face - таба, видео

Печатать
Просмотров: 160
Уроки эстрадного вокала в Санкт-Петербурге
-------------------------------------------------------------------------------
                             



e|---------------------------------------------------------------------------|
B|---------------------------------------------------------------------------|
G|---------------------------------------------------------------------------|
D|------------1-2-1-------------------------1-2-1-0--------------------------|
A|-0--0-0-2-3-------3-2-0-2-0-----0-0-0-2-3----------------------------------|
E|---------------------------------------------------------------------------|

e|---------------------------------------------------------------------------|
B|---------------------------------------------------------------------------|
G|---------------------------------------------------------------------------|
D|-0-2-3-0-2-3-0-2-3-0-2-3-2--0-2-3-2----------------------------------------|
A|------------------------------------5-3-2-0-2-3-0--------------------------|
E|---------------------------------------------------------------------------|

e|--------------------------|
B|--------------------------|
G|-2------------------------|
D|-2------------------------|
A|-0------------------------|
E|--------------------------|


high part
e|---------------------------------------------------------------------------|
B|---------------------------------------------------------------------------|
G|----14-14-14-12----12-14----------14-14-14-12------------------------------|
D|----------------14--------x2------------------14-12----12~-----------------|
A|----------------------------------------------------15---------------------|
E|---------------------------------------------------------------------------|

e|---------------------------------------------------------------------------|
B|---------------------------------------------------------------------------|
G|---------------------------------------------------------------------------|
D|-12-14-15-x3-12-14-15-14--12-14-15-14-12-----------------------------------|
A|-----------------------------------------15-14-12-14-15-12-----------------|
E|---------------------------------------------------------------------------|

Добавлено: 12.08.2015
Вам также может быть интересно:
Другие материалы по этой песне:
  • Аккорды и текст

Страница создана 12.08.2015
http://primanota.ru/la-luz/damp-face-chords.htm
Привет, Гость.
Предлагаем пройти революционный курс по гитаре.
Подарок от PrimaNota.Ru, забирай!