PrimaNota.ru - самый крупный в мире бесплатный архив песенных текстов, аккордов, табулатур и нот


La Ley - Libertad - таба, видео

Регистрация Запомнить меня
Войти через:  Facebook Google Twitter Vk Yandex Mail.ru

La Ley - Libertad - таба, видео

Печатать
Просмотров: 119
Al parecer, por el sonido en el disco, la guitarra acústica es de 12 cuerdas, pero igual 
la de 6, da los acordes. Es más o menos esto:

Riff Intro  B11    G/D     A...

Punteo Intro
 E|------3---0-------2---0---2---0-----|
 B|--0-----------0------------------0--|
 G|------------------------------------|
 D|------------------------------------|
 A|------------------------------------|
 E|------------------------------------|


B11
    Se me ha ido de las manos
         G/D           A...
   Algo trágico e inocente
B11
Nadie cubrió mis heridas
G/D                      A...           B11    G/D   
A...
Y lo mágico se convirtió en vano
B11
    El silencio fue mi prenda
           G/D            A...
De los sábados llenos de ausencia
B11
    Escribí mi pesadilla
        G/D                   A...
Y la deshoje donde decía
            E              G        D
Es una lastima      /         por si no han notado
            E              G        D
Es una lastima     /          mis ojos cerrados
E                    D9add6
Sueñan encontrar…


E                   D9add6
¡Libertad!     /     Yo quiero ¡libertad!
E                   D9add6
¡Libertad!     /      Tan solo ¡libertad!

B11
    Transformé mi impotencia
         G/D                A...
Y mi dignidad amedrentada
B11
     En un grito de conciencia
                   G/D        A...
Que nunca mas calle por experiencia
                 E               G      D
Y fue una lastima       /       por si no han notado
            E                    G      D
Fueron lagrimas        /        con ojos sellados
E                    D9add6
Sueñan encontrar…


E                   D9add6
¡Libertad!     /     Yo quiero ¡libertad!
E                   D9add6
¡Libertad!     /      Tan solo ¡libertad!

Pre-Solo (se repite 2 veces, )

 E|---10h11-----------------9h10---10h11----------------------|
 B|-----------12—--10h12-------------------12—-10h12----------|
 G|----------------------------------------------------9h11---|
 D|-----------------------------------------------------------|
 A|-----------------------------------------------------------|
 E|-----------------------------------------------------------|

Riff    B11        G/D         A....
En la oscuridad no hay paz / no puedo ver
Me tropiezo con hostilidad / no se muy bien
Si hay que esperar la luz o enfrentarse


Solo (no lo he sacado, si alguien lo tiene, publíquelo, jejeje...)


E                   D9add6
¡Libertad!     /     Yo quiero ¡libertad!
E                   D9add6
¡Libertad!     /      Tan solo ¡libertad!
E                   D9add6
¡Libertad!     /     Yo quiero ¡libertad!
E                   D9add6
¡Libertad!     /      Tan solo ¡libertad!


Los acordes son:

    B11   G/D   A...   E     G     
   D9add6
 E|-----|-----|-----|-----|--3--|--2--|---------|
 B|-----|-----|-----|-----|-----|--3--|---------|
 G|--8--|--4--|--6--|--1--|-----|--2--|----12---|
 D|--9--|--5--|--7--|--2--|-----|-----|----12---|
 A|--9--|--5--|--7--|--2--|--2--|-----|----11---|
 E|--7--|--3--|--5--|--0--|--3--|-----|----10---|
Добавлено: 09.03.2012
Другие материалы по этой песне:
  • Аккорды и текст

Страница создана 09.03.2012
http://primanota.ru/la-ley/libertad-chords.htm
Привет, Гость.
Предлагаем пройти революционный курс по гитаре.
Подарок от PrimaNota.Ru, забирай!