PrimaNota.ru - самый крупный в мире бесплатный архив песенных текстов, аккордов, табулатур и нот


La Guns - Shoot for Thrills - текст песни, бас-таба, видео

Регистрация Запомнить меня
Войти через:  Facebook Google Twitter Vk Yandex Mail.ru

La Guns - Shoot for Thrills - текст песни, бас-таба, видео

Печатать
Просмотров: 34
-----------------------------------------------------------------------------------
                                         Shoot For Thrills - LA Guns
-----------------------------------------------------------------------------------

Tabbed by: ChrisT

From the album: LA Guns (1988) 

Tuning: Standard

Intro (0:19)
G|---------------------------------------------------------------------------------|
D|---------------------------------------------------------------------------------|
A|---2-0------------2-0------------2-0------------2-0-------------------------2-0--|
E|-------2--------------0--------------2--------------0-0-0-0-0-0-0-0-0-0-0-0------|

G|-------------------------------------------------------------------|
D|o-----------------------------------------------------------------o|
A|o----------------------------2-------------------------------5----o|
E|---2-2-2-2-2-2-2-2-2-2-2-2-----2---5-5-5-5-5-5-5-5-5-5-5-5-----7---|

Verse 1                                                     Repeat x4 *Not 4th time
G|-------------------------------------------------------------------|
D|o-----------------------------------------------------------------o|
A|o----------------------------2-------------------------------5*---o|
E|---2-2-2-2-2-2-2-2-2-2-2-2-----2---5-5-5-5-5-5-5-5-5-5-5-5-----7*--|

Chorus                                                    *Not 2nd time
G|--------------------------------------------------------------------|-------|
D|o----------------------------------0-2-4-4-4-4-4-4-4-4-4*--4*--4*--o|--2----|
A|o--2-4-5-5-5-5-5-5-5-5-5-5-5-5-5-5---------------------------------o|-------|
E|---------------------------------------------------------2*--2*-----|-------|

G|-----------------------------------------------------------------------------|
D|-----------------------------------------------------------------------------|
A|------2-4-5---9-7-5-5---7-7-7---5---7-7-7-------2-4-5---5-4-2-2-4-0-----2-0--|
E|--0-----------------------------------------0--------------------------------|

G|---------------------------------------------------------------------|
D|---------------------------------------------------------------------|
A|-------------------------------2-0-----------------------------2-0---|
E|---2-2-2-2-2-2-2-2-2-2-2-2-2-2-----0-0-0-0-0-0-0-0-0-0-0-0-0-0-------|

G|---------------------------------------------------------------------|
D|---------------------------------------------------------------------|
A|-------------------------------2-0---------------------------2---0---|
E|---2-2-2-2-2-2-2-2-2-2-2-2-2-2-----0-0-0-0-0-0-0-0-0-0-0-0-----------|

Verse 2                                                     Repeat x4 *Not 4th time
G|-------------------------------------------------------------------|
D|o-----------------------------------------------------------------o|
A|o----------------------------2-------------------------------5*---o|
E|---2-2-2-2-2-2-2-2-2-2-2-2-----2---5-5-5-5-5-5-5-5-5-5-5-5-----7*--|

Chorus                                                    *Not 2nd time
G|--------------------------------------------------------------------|-------|
D|o----------------------------------0-2-4-4-4-4-4-4-4-4-4*--4*--4*--o|--2----|
A|o--2-4-5-5-5-5-5-5-5-5-5-5-5-5-5-5---------------------------------o|-------|
E|---------------------------------------------------------2*--2*-----|-------|

G|-----------------------------------------------------------------------------|
D|-----------------------------------------------------------------------------|
A|------2-4-5---9-7-5-5---7-7-7---5---7-7-7-------2-4-5---5-4-2-2-4-0-----2-0--|
E|--0-----------------------------------------0--------------------------------|

Guitar Solo                                                    Repeat x3
G|----------------------------------------------------------------------|
D|o--------------------------------------------------------------------o|
A|o------------------------------2-0-----------------------------2-0---o|
E|---2-2-2-2-2-2-2-2-2-2-2-2-2-2-----0-0-0-0-0-0-0-0-0-0-0-0-0-0--------|

G|-----------------------------------------------------------------|
D|-----------------------------------------------------------------|
A|-------------------------------2-0-------------------------------|
E|---2-2-2-2-2-2-2-2-2-2-2-2-2-2-----0-0-0-0-0-0-0-0-0-0-0-0-0-0---|

Chorus                                                    *Not 2nd time
G|--------------------------------------------------------------------|-------|
D|o----------------------------------0-2-4-4-4-4-4-4-4-4-4*--4*--4*--o|--2----|
A|o--2-4-5-5-5-5-5-5-5-5-5-5-5-5-5-5---------------------------------o|-------|
E|---------------------------------------------------------2*--2*-----|-------|

G|-----------------------------------------------------------------------------|
D|-----------------------------------------------------------------------------|
A|------2-4-5---9-7-5-5---7-7-7---5---7-7-7-------2-4-5---5-4-2-2-4-0-----2-0--|
E|--0-----------------------------------------0--------------------------------|

Outro                                                          Repeat x4
G|----------------------------------------------------------------------|
D|o--------------------------------------------------------------------o|
A|o------------------------------2-0-----------------------------2-0---o|
E|---2-2-2-2-2-2-2-2-2-2-2-2-2-2-----0-0-0-0-0-0-0-0-0-0-0-0-0-0--------|

G|----------------------------------------------------------------------|
D|----------------------------------------------------------------------|
A|---------------2-0-------------2-0-----------------2-0----------------|
E|---2---2---2-------2---2---2-------0-------------------2--------------|



| /  slide up
| \  slide down
| h  hammer-on
| p  pull-off
| ~  vibrato
| +  harmonic
| x  Mute note
===============================================================================
Добавлено: 05.05.2016
Другие материалы по этой песне:
  • Аккорды и текст

Страница создана 05.02.2014
http://primanota.ru/la-guns/shoot-for-thrills-chords.htm
Привет, Гость.
Предлагаем пройти революционный курс по гитаре.
Подарок от PrimaNota.Ru, забирай!