PrimaNota.ru - самый крупный в мире бесплатный архив песенных текстов, аккордов, табулатур и нот


La Femme - Antitaxi - таба, видео

Регистрация Запомнить меня
Войти через:  Facebook Google Twitter Vk Yandex Mail.ru

La Femme - Antitaxi - таба, видео

Печатать
Просмотров: 197
Band : La Femme
Song : Antitaxi
Album: Psycho Tropical Berlin (2013)


Song part: Solo

Tabbed by: Kovács Márk
E-mail   : nidaleop@gmail.com

Tuning:EADGBe (Standard)


        [MAIN PART]                   (SOLO1)
e||-----------------------------|-------------------|
B||---------6---7-6---6-7-6-7-6-|-8-6---------------|
G||---5-6-7---7-----7-----------|-----7-5-7---5-7---|  ----> SOLO1
D||-7---------------------------|-----------7-------|       
A||-----------------------------|-------------------|    
E||-----------------------------|-------------------|

       [MAIN PART]                   (SOLO2) 
e||-----------------------------|------------------|
B||---------6---7-6---6-7-6-7-6-|-8-6-----8-6------|
G||---5-6-7---7-----7-----------|-----7-------7----| ----> SOLO2
D||-7---------------------------|--------9---------|
A||-----------------------------|------------------|
E||-----------------------------|------------------|

       [MAIN PART]                   (SOLO3) 
e||-----------------------------|-------------------------|
B||---------6---7-6---6-7-6-7-6-|-88-66-88-66-8-8-8-8-8-6-|
G||---5-6-7---7-----7-----------|-------------------------|  -----> SOLO3
D||-7---------------------------|-------------------------|
A||-----------------------------|-------------------------|
E||-----------------------------|-------------------------|

You can use double note fastpicks at SOLO 2 & SOLO 3

PLAYING ORDER:
SOLO1 ]
SOLO2 ]
SOLO1 ]    3x
SOLO2 ]
SOLO3 ]
Добавлено: 27.05.2015
Другие материалы по этой песне:
  • Аккорды и текст

Страница создана 27.05.2015
http://primanota.ru/la-femme/antitaxi-chords.htm
Привет, Гость.
Предлагаем пройти революционный курс по гитаре.
Подарок от PrimaNota.Ru, забирай!