PrimaNota.ru - самый крупный в мире бесплатный архив песенных текстов, аккордов, табулатур и нот


La Dispute - Safer In The Forest Love Song For Poor Michigan - текст песни, таба, видео

Регистрация Запомнить меня
Войти через:  Facebook Google Twitter Vk Yandex Mail.ru

La Dispute - Safer In The Forest Love Song For Poor Michigan - текст песни, таба, видео

Печатать
Просмотров: 220
-------------------------------------------------------------------------------
  Safer In The Forest/ Love Song For Poor Michigan - La Dispute
-------------------------------------------------------------------------------
Tabbed by: kamdude
Email: triathlete_max@hotmail.com

Tuning: Standard

e|---------------------------------------------------------------------------|
B|----7---8---7--------5---------3--------7---8---7--------5----------3------| x 2
G|-9----9---9---9/7--7---7/5---5---5/--9----9---9---9/7--7----7/5---5--------|
D|---------------------------------------------------------------------------|
A|---------------------------------------------------------------------------|
E|---------------------------------------------------------------------------|

e|---------------------------------------------------------------------------|
B|--------7-------8-------0------------------7-------8-------0---------------|
G|----5-----5---5---5---5---5---5--------5-----5---5---5---5---5---5---------|
D|--7---7-----7-------7-------7--------7---7-----7-------7-------7-----------|
A|---------------------------------------------------------------------------|
E|---------------------------------------------------------------------------|

e|---------------------------------------------------------------------------|
B|--------8-------10------8------------------8-------10-------8--------------|
G|----7-----7---7---7---7---7---7--------7-----7---7----7---7---7---7--------|
D|--9---9-----9-------9-------9--------9---9-----9--------9-------9----------|
A|---------------------------------------------------------------------------|
E|---------------------------------------------------------------------------|

e|----------------8------------------------------------8---------------------|
B|----7---10--7-------7---10--7----------7----10---7-------7---10--7---------|
G|--8---8---8---8---8---8---8---8------8----8----8---8---8---8---8-----------|
D|---------------------------------------------------------------------------|
A|---------------------------------------------------------------------------|
E|---------------------------------------------------------------------------|

e|----------------7---------------------------------7---8---7----------------|
B|----7---8---10------10--8---7---------7---8---10---------------10----------|
G|--9---9---9---9---9---9---9---------9---9---9---9---9---9----9-------------|
D|---------------------------------------------------------------------------|
A|---------------------------------------------------------------------------|
E|---------------------------------------------------------------------------|

e|----------------8---------------------------------10p7---------------------|
B|----7---10--7-------7---10--7---------7---10--7--------10p7----------------|
G|--8---8---8---8---8---8---8---------8---8---8---8-----------9p7-7h9--------|
D|---------------------------------------------------------------------------|
A|---------------------------------------------------------------------------|
E|---------------------------------------------------------------------------|


Guitar 2: @ :42

e|---------------------------------------------------------------------------|
B|---------------------------------------------------------------------------|
G|---------------------------------------------------------------------------|
D|--5---7---9---7---5---4---5---4--------------------------------------------|
A|---------------------------------------------------------------------------|
E|---------------------------------------------------------------------------|

I'm going to submit this as the whole song because I'll be editing it very soon into the 
full song.
Добавлено: 26.02.2012
Другие материалы по этой песне:
  • Аккорды и текст

Страница создана 26.02.2012
http://primanota.ru/la-dispute/safer-in-the-forest-love-song-for-poor-michigan-chords.htm
Привет, Гость.
Предлагаем пройти революционный курс по гитаре.
Подарок от PrimaNota.Ru, забирай!