PrimaNota.ru - самый крупный в мире бесплатный архив песенных текстов, аккордов, табулатур и нот


La Dispute - A Peom - бас-таба, видео

Регистрация Запомнить меня
Войти через:  Facebook Google Twitter Vk Yandex Mail.ru

La Dispute - A Peom - бас-таба, видео

Печатать
Просмотров: 86
-------------------------------------------------------------------------------
                             a poem - LA DISPUTE
-------------------------------------------------------------------------------
Tabbed by: 
E-mail: 

Tuning:

G|---------------------------------------------------------------------------|
D|----7------7----7-----9----------------------------------------------------|
A|--5---3/5---5-8---8-7------------------------------------------------------| repeat 
E|---------------------------------------------------------------------------|

G|---------------------------------------------------------------------------|
D|--55-----------------------------------------------------------------------|repeat
A|-----66-55--11-33-66-55----------------------------------------------------|the five is repeated
E|---------------------------------------------------------------------------|somewhere in the middle
                                                                              and at the end.


Добавлено: 22.07.2015
Другие материалы по этой песне:
  • Аккорды и текст

Страница создана 22.07.2015
http://primanota.ru/la-dispute/peom-chords.htm
Привет, Гость.
Предлагаем пройти революционный курс по гитаре.
Подарок от PrimaNota.Ru, забирай!