PrimaNota.ru - самый крупный в мире бесплатный архив песенных текстов, аккордов, табулатур и нот


La Dispute - All Our Bruised Bodies And The Whole Heart Shrinks - текст песни, таба, бас-таба, видео

Регистрация Запомнить меня
Войти через:  Facebook Google Twitter Vk Yandex Mail.ru

La Dispute - All Our Bruised Bodies And The Whole Heart Shrinks - текст песни, таба, бас-таба, видео

Печатать
Просмотров: 78
La Dispute - All our bruised bodies and the whole heart shrinks
Standard Tuning (eBGDAE)
Tabbed by Lachlan M

Intro (0:17 - 1:12)

E|-----------------------------------------------------------|
B|-----------------------------------------------------------|
G|--5-----5\4--4-------7--------9--------9--7----------------|
D|--7--7-------5--5/7--9--9/10--10------7-------9-9-9-10-9-9-| Play 5 and a half times
A|-------------------------------------8--------8-8-8-8--8-8-|
E|-----------------------------------------------------------|


Tell me everything...
(1:15 - 2:00)

E|-----------------------------------------------------------|
B|-----------------------------------------------------------|
G|------------------------------1---------------1------------|
D|--4-4-4-4-4-4---3-3-3-3-3-3---2-------3-------2-------3----|
A|--4-4-4-4-4-4---3-3-3-3-3-3---2-------3-------2-------3----|
E|--2-2-2-2-2-2---1-1-1-1-1-1---0-------1-------0-------1----|


I'm not sure if I'm ready yet...
(2:00 - 2:41)

E|---------------------------------------------|
B|---------------------------------------------|
G|---------------------------------------------|
D|-------------------------7--5----------------| x2
A|--7------7--5--7----8----8--7--7------5---7--|
E|--5------5--7--8----10---------5------7---8--|

E|---------------------------------------------|
B|---------------------------------------------|
G|---------------------------------------------|
D|-------------------------7--5----------------|
A|--5------5--5--7----8----8--7--5------7---5--|
E|--7------7--7--8----10---------7------8---7--|

E|---------------------------------------------|
B|---------------------------------------------|
G|---------------------------------------------|
D|-------------------------7--5----------------|
A|--7------7--5--7----8----8--7--7------5---2--|
E|--5------5--7--8----10---------5------7---3--|


Tell your stories to me...
(2:41 - 3:21)

E|-------------------------------------|  |---------|
B|-------------------------------------|  |---------|
G|--------1-------------------------1--|  |---------|
D|--3-----2--------7---5--------7---2--|x2|--x-x-5--| Replace last chord on second time through
A|--3-----2--------7---5--------7---2--|  |--x-x-5--|
E|--1-----0--------5---3--------5---0--|  |--x-x-3--|
        (Figure out the strumming) 


Tell me what your worst fears are...
(3:21 - 4:03)
(Not sure about this part)

E|-----------------------------------------------------------------------|
B|-----------------------------------------------------------------------|
G|--55--55----44--44----77--77----9-9--------------9-9--7-7--7-7--7--7-7-|
D|--77--77----55--55----99--99----1010-------------7-7--7-7--9-9--10-9-9-|
A|-------------------------------------------------8-8--8-8--8-8--8--8-8-|
E|-----------------------------------------------------------------------|
                                                   (figure out strumming)


Outro
(4:04 - 5:00)

E|----------------------------------------------|  |--------|
B|----------------------------------------------|  |--------|
G|----------------------------------------------|  |--------|
D|--3----------3--5--7--9--7--5--3----------7---|x4|--4--3--| (Replace last chord with this & Repeat 4 times)
A|--3----------3--5--7--9--7--5--3----------7---|  |--4--3--|
E|--1----------1--3--5--7--5--3--1----------5---|  |--2--1--|
    
Добавлено: 24.08.2014
Другие материалы по этой песне:
  • Аккорды и текст

Страница создана 24.08.2014
http://primanota.ru/la-dispute/all-our-bruised-bodies-and-whole-heart-shrinks-chords.htm
Привет, Гость.
Предлагаем пройти революционный курс по гитаре.
Подарок от PrimaNota.Ru, забирай!