PrimaNota.ru - самый крупный в мире бесплатный архив песенных текстов, аккордов, табулатур и нот


La Cumparsita Rock 72 - Puede Que Haya Más - таба, видео

Регистрация Запомнить меня
Войти через:  Facebook Google Twitter Vk Yandex Mail.ru

La Cumparsita Rock 72 - Puede Que Haya Más - таба, видео

Печатать
Просмотров: 64
Intro para mi es a dos violas, una hace esto:


A|-0--4---------2-------4-----------2--------4--------2---
D|-2----1-2-4-1---1-1h2----4-2-1-------1-1h2----1h2-1---1-
G|------------------------1-------------------------------

A|-0--4---------2-------4-----------2--------4--------2--4-
D|-2----1-2-4-1---1-1H2-----4-2-1------1-1h2----1h2-1--1---
G|------------------------1--------------------------------

Y la primera viola esto:


D|-------------9-------------------9---------------9------
G|-9-6-8-9---8---8-8h9-6------9--8---8-8h9-6-8s9-8---8----
B|---------7--------------9-7-----------------------------

D|-------------9-------------------9---------------9------
G|-9-6-8-9---8---8-8h9-6------9--8---8-8h9-6-8s9-8----8-6-
B|---------7--------------9-7-----------------------------


Todo el tema es con estos 3 acordes


 A            B        C#m
   Si yo estuviera ahí abajo como uno más
   Y tú estuvieras arriba para observar
   Que el sentimiento comparto
   Para que veas que lindo es tu lugar
   Para que sientas lo mismo que me das
   Para encontrarnos de nuevo una noche más.

   Has cosechado en la tierra de mi sensibilidad
   Cruzaste tantos caminos para estar acá
   Solo de frente se entiende
   No hay oración que describa como sos
   Y no hay razón que me impida continuar
   Si se termina ahora mismo puede que haya más.

Interludio: Saxo y Viola

   De tu fervor no me olvido
   Barrios que he pateado solo por ganas de verte
   Cuantas callecitas, tantos cordones amigos
   La lluvia no moja y el frío es divino.
   Y de mi canción te has reído
   Esa vocación que nace de mi alma sencilla
   Esa admiración no cesa en tu rostro sombrío
                  A5  G#5                   A5    B5   C#5
   Si estás en mi vida y no hay más que te pida

Solo viola
Добавлено: 21.03.2016
Вам также может быть интересно:
Другие материалы по этой песне:
  • Аккорды и текст

Страница создана 21.03.2016
http://primanota.ru/la-cumparsita-rock-72/puede-que-haya-mas-chords.htm
Привет, Гость.
Предлагаем пройти революционный курс по гитаре.
Подарок от PrimaNota.Ru, забирай!