PrimaNota.ru - самый крупный в мире бесплатный архив песенных текстов, аккордов, табулатур и нот


La Crus - Ninna Nanna - таба, видео

Регистрация Запомнить меня
Войти через:  Facebook Google Twitter Vk Yandex Mail.ru

La Crus - Ninna Nanna - таба, видео

Печатать
Просмотров: 160
Уроки эстрадного вокала в Санкт-Петербурге
		   --------
NINNA NANNA

strofa:
|------------------------------------------
|-----1---------1--------------------------
|---2---2-----2---2-------1---------2------
|-2---------2-----------0---0-----2--------
|---------------------2---------0----------
|------------------------------------------
  LAm                 MI7       LAm

ritornello:

|------------------------------------------
|-----1-------------------1----------------
|---2---2-------1-------2---2-------1------
|-2-----------0---0---2-----------0--------
|-----------2-------------------2----------
|------------------------------------------
  LAm       MI7       LAm       MI7

LAm          MI7   LAm
Vento freddo della notte
            MI7   LAm
vento della notte nera
               MI7    LAm
non soffiare a questa porta
              MI7   LAm
lascia accesa la candela
  LAm          MI7         LAm         MI7
  lasciaci guardare quando l'angelo sorride
  LAm         MI7           LAm         MI7
  lasciaci sentire il canto dolce della sera


nel silenzio passa un carro
d'oro e carico di sogni
e per te che aspetti il sonno
scuote ancora i suoi sonagli
  lasciaci guardare quando l'angelo sorride
  lasciaci sentire il canto dolce della sera

viene un angelo a cullarti
canta favole incantate
che ti portano al mattino
poi ti sembrano sognate
  lasciaci guardare quando l'angelo sorride
  lasciaci sentire il canto dolce della sera






     
Добавлено: 20.11.2013
Другие материалы по этой песне:
  • Аккорды и текст

Страница создана 20.11.2013
http://primanota.ru/la-crus/ninna-nanna-chords.htm
Привет, Гость.
Предлагаем пройти революционный курс по гитаре.
Подарок от PrimaNota.Ru, забирай!