PrimaNota.ru - самый крупный в мире бесплатный архив песенных текстов, аккордов, табулатур и нот


La Crus - Inventario - аккорды и текст, видео

Регистрация Запомнить меня
Войти через:  Facebook Google Twitter Vk Yandex Mail.ru

La Crus - Inventario - аккорды и текст, видео

Печатать
Просмотров: 66
Inventario
La Crus
		   --------
INVENTARIO

|--------------------------------------------------------
|------------0-----------0-----------0-------------------
|-------- 0-----0-----0-----0-----0-----0----------------
|------5-----------4-----------2-----------2--0--2--4----
|--------------------------------------------------------
|--------------------------------------------------------
  Tre  chiodi due  chiavi una  stanza               lo...

Ripetere il giro poi chiudere:

|---------------------------------------------
|---------0-----------0-----------------------
|------0-----0-----0-----0--------------------
|---5-----------7-----------9-----------------
|---------------------------------------------
|---------------------------------------------
 camicie     e  rose    appassite


Tre chiodi, due chiavi, una stanza,
lo stereo che manda Jacques Brel
camicie e rose appassite

Un quadro di Giacomo Spazio
del vino e un romanzo di Beckett
le mie quattro armoniche a bocca
e un libro sui fiori di Bach

Un vecchio biglietto dell'Elfo
i neri stivali di sempre
due foto, una sveglia ed un letto
e in mezzo io che penso a te




     
Добавлено: 23.06.2013
Другие материалы по этой песне:
  • Аккорды и текст

Страница создана 23.06.2013
http://primanota.ru/la-crus/inventario-chords.htm
Привет, Гость.
Предлагаем пройти революционный курс по гитаре.
Подарок от PrimaNota.Ru, забирай!