PrimaNota.ru - самый крупный в мире бесплатный архив песенных текстов, аккордов, табулатур и нот


La Biancaa - Camino Sobre Ropas De Duelo - таба, видео

Регистрация Запомнить меня
Войти через:  Facebook Google Twitter Vk Yandex Mail.ru

La Biancaa - Camino Sobre Ropas De Duelo - таба, видео

Печатать
Просмотров: 96
-------------------------------------------------------------------------------
                   Camino Sobre Ropas De Duelo - La Biancaa
-------------------------------------------------------------------------------


Tabbed by: Zeusimo
Myspace - http://myspace.com/jessei_f
Youtube - http://www.youtube.com/zeusimo
Twitter - http://twitter.com/zeusimo
Ultimate-Guitar - http://profile.ultimate-guitar.com/zeusimo/

Tuning: Drop C (C-G-C-F-A-D)

Not Done Yet I'll Upload Guitar 1 Later
If You Find An Error Pease Tell Me
Enjoy This Shit XD

Guitar 2
D|----------------------------------------------------|
A|----------------------------------------------------|
F|----------------------------------------------------|
C|000-000-------------------000-000-------------------|
G|000-000-66-555-7777777777-000-000-66-555-8888888888-|
C|000-000-------------------000-000-------------------|
  ... ...                   ... ...

Guitar 2
D|------------------------------------------------------|
A|------------------------------------------------------|
F|------------------------------------------------------|
C|000-000-------------------000-000---------------------|
G|000-000-66-555-7777777777-000-000-66-555-999999999-9\-|
C|000-000-------------------000-000---------------------|
  ... ...                   ... ...

Guitar 2
D|----------------------------------------------------|
A|----------------------------------------------------|
F|----------------------------------------------------|
C|000-000-------------------000-000-------------------|
G|000-000-66-555-7777777777-000-000-66-555-8888888888-|
C|000-000-------------------000-000-------------------|
  ... ...                   ... ...

Guitar 2
D|------------------------------------------------------|
A|------------------------------------------------------|
F|------------------------------------------------------|
C|000-000-------------------000-000---------------------|
G|000-000-66-555-7777777777-000-000-66-555-999999999-9\-|
C|000-000-------------------000-000---------------------|
  ... ...                   ... ...

Guitar 2
D|--------------------------------------------------------|
A|--------------------------------------------------------|
F|--------------------------------------------------------|
C|000-000-000-000-------------000-000-000-000-------------|
G|000-000-000-000-666-5555555-000-000-000-000-555-7777777-|
C|000-000-000-000-------------000-000-000-000-------------|
  ... ... ... ...             ... ... ... ...

Guitar 2
D|------------------------------------------------------|
A|------------------------------------------------------|
F|------------------------------------------------------|
C|000-000-000-000---------------------------------------|
G|000-000-000-000-66-555-7-66-555-8888888-66-9999999-6\-|
C|000-000-000-000---------------------------------------|
  ... ... ... ...

Guitar 2
D|--------------------------------------------------------|
A|--------------------------------------------------------|
F|--------------------------------------------------------|
C|000-000-000-000-------------000-000-000-000-------------|
G|000-000-000-000-666-5555555-000-000-000-000-555-7777777-|
C|000-000-000-000-------------000-000-000-000-------------|
  ... ... ... ...             ... ... ... ...

Guitar 2
D|------------------------------------------------------|
A|------------------------------------------------------|
F|------------------------------------------------------|
C|000-000-000-000---------------------------------------|
G|000-000-000-000-66-555-7-66-555-8888888-66-9999999-6\-|
C|000-000-000-000---------------------------------------|
  ... ... ... ...

Guitar 2                 x4
D|------------------------|
A|------------------------|
F|------------------------|
C|000-000-000-000-000-0-0-|
G|000-000-000-000-000-0-0-|
C|000-000-000-000-000-0-0-|
  ... ... ... ... ... . .

Guitar 2
D|--------------------------|
A|--------------------------|
F|--------8---------8-----8-|
C|000-000-x-000-000-x-000-x-|
G|000-000-6-000-000-6-000-6-|
C|000-000---000-000---000---|
  ... ...   ... ...   ...

Guitar 2                                                x2
D|-------------------------------------------------------|
A|-------------------------------------------------------|
F|-------------------------------------------------------|
C|000-000-000-000--0000--000-000-000-000-000-11-44-33-11-|
G|000-000-000-000--0000--000-000-000-000-000-11-44-33-11-|
C|000-000-000-000--0000--000-000-000-000-000-11-44-33-11-|
  ... ... ... ...  ....  ... ... ... ... ... .. .. .. ..

Guitar 2                                     x2
D|--------------------------------------------|
A|--------------------------------------------|
F|--------------------------------------------|
C|000-000-000-000-11-44-000-000-000-000-33-11-|
G|000-000-000-000-11-44-000-000-000-000-33-11-|
C|000-000-000-000-11-44-000-000-000-000-33-11-|


Guitar 2
D|----------------------------------------|
A|----------------------------------------|
F|--------8-7------5-6-5---------8-7--5-6-|
C|000-000-8-7-0000-5-6-5-000-000-8-7--5-6-|
G|000-000-6-5-0000-3-4-3-000-000-6-5--3-4-|
C|000-000-----0000-------000-000----------|
  ... ...     ....       ... ...

Guitar 2
D|-------------------|
A|-------------------|
F|---------------(7)-|
C|000-000-000-00-----|
G|000-000-000-00-----|
C|000-000-000-00-----|
  ... ... ... ..

Guitar 2                x4
D|-----------------------|
A|-----------------------|
F|--------8-7------5-6-5-|
C|000-000-8-7-0000-5-6-5-|
G|000-000-6-5-0000-3-4-3-|
C|000-000-----0000-------|
  ... ...     ....

Guitar 2
D|------------------------------------------|
A|------------------------------------------|
F|------------------------------------------|
C|----55555--------55555----5-------5-------|
G|555-------66-555-------66---7-5-6---7-5-6-|
C|------------------------------------------|

Guitar 2
D|----------------------------------------------------|
A|----------------------------------------------------|
F|----------------------------------------------------|
C|----55555--------55555--------33333--------33333----|
G|555-------66-555-------66-555-------66-555-------66-|
C|----------------------------------------------------|

Guitar 2
D|--------------------------------|
A|--------------------------------|
F|--------------------------------|
C|3-------4-------5-------6-------|
G|--7-5-6---7-5-6---7-5-6---7-5-6-|
C|--------------------------------|

Guitar 2                x4
D|-----------------------|
A|-----------------------|
F|--------8-7------5-6-5-|
C|000-000-8-7-0000-5-6-5-|
G|000-000-6-5-0000-3-4-3-|
C|000-000-----0000-------|
  ... ...     ....

Guitar 2
D|---------------------------------------|
A|---------------------------------------|
F|---------------------------------------|
C|0000000-000000-0000000-----------------|
G|0000000-000000-0000000-----------------|
C|0000000-000000-0000000-111-444-333-111-|
  ....... ...... .......

Guitar 2
D|--------------------------------|
A|--------10----------------------|
F|--------13--------6-4-5---------|
C|0000000----000000-6-4-5-0000000-|
G|0000000----000000-4-2-3-0000000-|
C|0000000----000000-------0000000-|
  .......    ......       .......

Guitar 2
D|--------------------------------|
A|--------------------------------|
F|--------------------------------|
C|--------------------------------|
G|--------------------------------|
C|111-444-111-333-111-444-111-333-|


Guitar 2     x3
D|------------|
A|------------|
F|------------|
C|------------|
G|------------|
C|111-333-444-|


Guitar 2
D|----------------|
A|----------------|
F|----------------|
C|1-3-4-1-4-1-3-1-|
G|1-3-4-1-4-1-3-1-|
C|1-3-4-1-4-1-3-1-|
  . . . . . . . .

Guitar 2     x3
D|------------|
A|------------|
F|------------|
C|------------|
G|------------|
C|111-333-444-|

Guitar 2                 x2
D|------------------------|
A|------------------------|
F|------------------------|
C|1-3-4-1-3-4-1-3-4-0-0-0-|
G|1-3-4-1-3-4-1-3-4-0-0-0-|
C|1-3-4-1-3-4-1-3-4-0-0-0-|
                    . . .

Guitar 2                       x4
D|------------------------------|
A|10-10-10--------8-10--8-------|
F|13-13-13-------11-13-11-------|
C|---------0-0-0----------0-0-0-|
G|---------0-0-0----------0-0-0-|
C|---------0-0-0----------0-0-0-|
           . . .          . . .

Guitar 2
D|----------------------|
A|----------------------|
F|----------------------|
C|0000000-0000000-1-3-4-|
G|0000000-0000000-1-3-4-|
C|0000000-0000000-1-3-4-|
  ....... ....... . .

Guitar 2         x2
D|----------------|
A|----------------|
F|----------------|
C|1-3-4-6-1-3-4-3-|
G|1-3-4-6-1-3-4-3-|
C|1-3-4-6-1-3-4-3-|
  . . . . . . . .

Guitar 2
D|--------------------------------|
A|--------------------------------|
F|--------------------------------|
C|1-3-4-7-1-3-4-7-1-3-4-7-1-3-4-3-|
G|1-3-4-7-1-3-4-7-1-3-4-7-1-3-4-3-|
C|1-3-4-7-1-3-4-7-1-3-4-7-1-3-4-3-|
  . . . . . . . . . . . . . . . .

Guitar 2
D|------------------------|
A|------------------------|
F|------------------------|
C|3-------4-------5-------|
G|--7-5-6---7-5-6---7-5-6-|
C|------------------------|


Guitar 2
D|---------------------|
A|---------------------|
F|---------------------|
C|0000000-000000-00000-|
G|0000000-000000-00000-|
C|0000000-000000-00000-|
  ....... ...... .....

Guitar 2
D|------------------------------------------|
A|------------------------------------------|
F|-------------------8----------------------|
C|0000000-000000-000-x-0000000-000000-00000-|
G|0000000-000000-000-6-0000000-000000-00000-|
C|0000000-000000-000---0000000-000000-00000-|
  ....... ...... ...   ....... ...... .....

Guitar 2
D|------------------------|
A|------------------------|
F|-------8--------8-----8-|
C|000000-x-000000-x-000-x-|
G|000000-6-000000-6-000-6-|
C|000000---000000---000---|
  ......   ......   ...
Добавлено: 14.06.2012
Другие материалы по этой песне:
  • Аккорды и текст

Страница создана 14.06.2012
http://primanota.ru/la-biancaa/camino-sobre-ropas-de-duelo-chords.htm
Привет, Гость.
Предлагаем пройти революционный курс по гитаре.
Подарок от PrimaNota.Ru, забирай!