PrimaNota.ru - самый крупный в мире бесплатный архив песенных текстов, аккордов, табулатур и нот


La Beriso - Traicionero - таба, видео

Регистрация Запомнить меня
Войти через:  Facebook Google Twitter Vk Yandex Mail.ru

La Beriso - Traicionero - таба, видео

Печатать
Просмотров: 74
-------------------------------------------------------------------------------
                             Traicionero - La Beriso
-------------------------------------------------------------------------------
Tabbed by: Costa Alejandro
E-mail: alejandro.r.costa@gmail.com
  


                        PUNTEO
                       --------


e|----------------------------------|
B|----------------------------------|
G|-12/13-13-13--12-13-15--13-15-17--|
D|----------------------------------|
A|----------------------------------|
E|----------------------------------|



e|-------------------------------------------------------|
B|-------------------------------------------------------|
G|17-17-17-17-17/18-17-13-13-15-15/17-17--15/17\15-13-13-|
D|-------------------------------------------------------|
A|-------------------------------------------------------|
E|-------------------------------------------------------|



                                                                 [    Let Ring    ]
e|----------------------------------------------------------------------------13-13-|
B|-------------------------------------------------------------------------13-13-13-|
G|-12-13-15-13--12/13\12----12------------------------------------------13----------|
D|-----------------------15----15-15/13\15--11/13\11-------13/15--13^15-------------|
A|---------------------------------------------------15-16--------------------------|
E|----------------------------------------------------------------------------------|



e|-13-15-16--15/16\15--13/15\13----|----------15-16-18--20b-----18-16-18-16-------|
B|------------------------------16-|-15-16-18-------------------------------18-18-|
G|---------------------------------|----------------------------------------------|
D|---------------------------------|----------------------------------------------|
A|---------------------------------|----------------------------------------------|
E|---------------------------------|----------------------------------------------|

            
e|---------------16\13------------------------------------13/15\13--------|
B|----18-----13--------16\13----------13-13/15\13-----11-----------15-16--|
G|-18-18--13-13--------------15\12-15--------------12---------------------|
D|------------------------------------------------------------------------|
A|------------------------------------------------------------------------|
E|------------------------------------------------------------------------|


        b = Bending
        / = Arrastre Ascendente
        \ = Arrastre Descendente


Me Gusta mucho este punteo.

.
Добавлено: 17.11.2015
Другие материалы по этой песне:
  • Аккорды и текст

Страница создана 16.11.2015
http://primanota.ru/la-beriso/traicionero-chords.htm
Привет, Гость.
Предлагаем пройти революционный курс по гитаре.
Подарок от PrimaNota.Ru, забирай!