PrimaNota.ru - самый крупный в мире бесплатный архив песенных текстов, аккордов, табулатур и нот


La Beriso - Como Olvidarme - таба, видео

Регистрация Запомнить меня
Войти через:  Facebook Google Twitter Vk Yandex Mail.ru

La Beriso - Como Olvidarme - таба, видео

Печатать
Просмотров: 149
-------------------------------------------------------------------------------
                             Como Olvidarme - La Beriso
-------------------------------------------------------------------------------
Tabbed by: Costa Alejandro
E-mail: alejandro.r.costa@gmail.com


                        SOLO
                       ------

        Nótese que la sexta cuerda está afinada en MIb (o RE#)
        Note that the sixth string is tuned in Eb (or D#)


                 G#m                F#m

e |-----------------------16-----19^18--18^14----14--|
B |----12-11-12-14b-12---------0--------------16-----|
G |-13-----------------13----------------------------|
D |--------------------------------------------------|
A |--------------------------------------------------|
D#|--------------------------------------------------|



          D#                                 G#m         

e |-----------14b-------------14b-------------------------------------|
B |-14^16-16------16-14-16-16-----16---14-12-14-12-11-12-11-----------|
G |---------------------------------------------------------13-11-----|
D |---------------------------------------------------------------13--|
A |-------------------------------------------------------------------|
D#|-------------------------------------------------------------------|



             G#m                  F#

e |------------------------------------------------------------------|
B |------------------------------------------------------------------|
G |----11-13-13-----11-13---15^16-15--15-16-15-13-11-13-11-11----11\0|
D |-13-----------13--------------------------------------------------|
A |------------------------------------------------------------------|
D#|------------------------------------------------------------------|



        D#                                            G#m                             
                                                      
e |-------------------------------------------------------|
B |-------------------------------------------------------|
G |--7b-7b-6-4-6-7b---6-4-6-4---4-------------------------|
D |---------------------------6---6-4-6-4---4-------------|
A |---------------------------------------6---6-4---4-----|
D#|-----------------------------------------------8---5-5-|




                *Siento el perfume de la tristeza.

e |----------4~~~~~~~~~~~~~~~~~~~~~~~~~~~~~~~~2~~~~~~-|
B |---------------------------------------------------|
G |-----4---------------------------------------------|
D |---4---6-------------------------------------------|
A |-6-------------------------------------------------|
D#|---------------------------------------------------|



Epero que disfruten este lindo y simple Solo de La Beriso!
Добавлено: 16.11.2015
Другие материалы по этой песне:
  • Аккорды и текст

Страница создана 16.11.2015
http://primanota.ru/la-beriso/como-olvidarme-chords.htm
Привет, Гость.
Предлагаем пройти революционный курс по гитаре.
Подарок от PrimaNota.Ru, забирай!