PrimaNota.ru - самый крупный в мире бесплатный архив песенных текстов, аккордов, табулатур и нот


L7 - Crackpot Baby - текст песни, таба, видео

Регистрация Запомнить меня
Войти через:  Facebook Google Twitter Vk Yandex Mail.ru

L7 - Crackpot Baby - текст песни, таба, видео

Печатать
Просмотров: 270
Авторы музыки: Donita Sparks
Авторы текста: Donita Sparks
----------------------------------------
Artist : L7
Song   : Crackpot Baby
Album  : Slap Happy
----------------------------------------
Tabbed by : Ricky Thomson
Date      : 29th Sep 2013
Contact   : punkalert@gmail.com
----------------------------------------

Tuning: Drop D

pm = palm mute


[intro]
e|-----------------------------------|
B|-----------------------------------|
G|-----------------------------------|
D|--5-5-5-5-5-5-5-5-5-5-5-5-5-5-5-5--|  x2
A|--5-5-5-5-5-5-5-5-5-5-5-5-5-5-5-5--|
D|--5-5-5-5-5-5-5-5-5-5-5-5-5-5-5-5--|

e|-----------------------------------|
B|-----------------------------------|
G|-----------------------------------|
D|--5---5-5-5-5-5-5-0-0-0-3---3-3-3--|  x2
A|--5---5-5-5-5-5-5-0-0-0-3---3-3-3--|
D|--5---5-5-5-5-5-5-0-0-0-3---3-3-3--|


[chorus]
e|-----------------------------------|
B|-----------------------------------|
G|-----------------------------------|
D|--5--7-5-7-5-5-5--0-0-0-3---3-3-3--|  x4
A|--5--7-5-7-5-5-5--0-0-0-3---3-3-3--|
D|--5--7-5-7-5-5-5--0-0-0-3---3-3-3--|

e|-----------------------------------|
B|-----------------------------------|
G|-----------------------------------|
D|--9-9-9-1-1-1-2-2-9-9-9-1-1-1-2-2--|  x2
A|--9-9-9-1-1-1-2-2-9-9-9-1-1-1-2-2--|
D|--9-9-9-1-1-1-2-2-9-9-9-1-1-1-2-2--|

e|-----------------------------------|
B|-----------------------------------|
G|-----------------------------------|
D|--5-5-5-5-5-5-5-5-5-5-5-5-5-5-5-5--|
A|--5-5-5-5-5-5-5-5-5-5-5-5-5-5-5-5--|
D|--5-5-5-5-5-5-5-5-5-5-5-5-5-5-5-5--|

e|-----------------------------------|
B|-----------------------------------|
G|-----------------------------------|
D|--9-9-9-1-1-1-2-2-9-9-9-1-1-1-2-2--|  x2
A|--9-9-9-1-1-1-2-2-9-9-9-1-1-1-2-2--|
D|--9-9-9-1-1-1-2-2-9-9-9-1-1-1-2-2--|

e|-----------------------------------|
B|-----------------------------------|
G|-----------------------------------|
D|--5-5-5-5-5-5-5-5-5----------------|
A|--5-5-5-5-5-5-5-5-5----------------|
D|--5-5-5-5-5-5-5-5-5----------------|


[verse]
pm[ .   . . . . . . . . . .   . . .  ]
e|-----------------------------------|
B|-----------------------------------|
G|-----------------------------------|
D|--5---5-5-5-5-5-5-0-0-0-3---3-3-3--|  x8
A|--5---5-5-5-5-5-5-0-0-0-3---3-3-3--|
D|--5---5-5-5-5-5-5-0-0-0-3---3-3-3--|


[chorus]
e|-----------------------------------|
B|-----------------------------------|
G|-----------------------------------|
D|--5--7-5-7-5-5-5--0-0-0-3---3-3-3--|  x4
A|--5--7-5-7-5-5-5--0-0-0-3---3-3-3--|
D|--5--7-5-7-5-5-5--0-0-0-3---3-3-3--|

e|-----------------------------------|
B|-----------------------------------|
G|-----------------------------------|
D|--9-9-9-1-1-1-2-2-9-9-9-1-1-1-2-2--|  x2
A|--9-9-9-1-1-1-2-2-9-9-9-1-1-1-2-2--|
D|--9-9-9-1-1-1-2-2-9-9-9-1-1-1-2-2--|

e|-----------------------------------|
B|-----------------------------------|
G|-----------------------------------|
D|--5-5-5-5-5-5-5-5-5-5-5-5-5-5-5-5--|
A|--5-5-5-5-5-5-5-5-5-5-5-5-5-5-5-5--|
D|--5-5-5-5-5-5-5-5-5-5-5-5-5-5-5-5--|

e|-----------------------------------|
B|-----------------------------------|
G|-----------------------------------|
D|--9-9-9-1-1-1-2-2-9-9-9-1-1-1-2-2--|  x2
A|--9-9-9-1-1-1-2-2-9-9-9-1-1-1-2-2--|
D|--9-9-9-1-1-1-2-2-9-9-9-1-1-1-2-2--|

e|-----------------------------------|
B|-----------------------------------|
G|-----------------------------------|
D|--5-5-5-5-5-5-5-5-5----------------|
A|--5-5-5-5-5-5-5-5-5----------------|
D|--5-5-5-5-5-5-5-5-5----------------|


[chorus/solo]
e|-----------------------------------|
B|-----------------------------------|
G|-----------------------------------|
D|--7--9-7-9-7-7-7--4-4-4-5---5-5-5--|  x4
A|--7--9-7-9-7-7-7--4-4-4-5---5-5-5--|
D|--7--9-7-9-7-7-7--4-4-4-5---5-5-5--|

[bridge]
e|-----------------------------------|
B|-----------------------------------|
G|-----------------------------------|
D|--3-3-3-3-3-3-3-3-3-3-3-3-3-3-3-3--|
A|--3-3-3-3-3-3-3-3-3-3-3-3-3-3-3-3--|
D|--3-3-3-3-3-3-3-3-3-3-3-3-3-3-3-3--|

e|-----------------------------------|
B|-----------------------------------|
G|-----------------------------------|
D|--2-2-2-2-2-2-2-2-2----------------|
A|--2-2-2-2-2-2-2-2-2----------------|
D|--2-2-2-2-2-2-2-2-2----------------|

[chorus]
e|-----------------------------------|
B|-----------------------------------|
G|-----------------------------------|
D|--5--7-5-7-5-5-5--0-0-0-3---3-3-3--|  x8
A|--5--7-5-7-5-5-5--0-0-0-3---3-3-3--|
D|--5--7-5-7-5-5-5--0-0-0-3---3-3-3--|

[end]
e|-----------------------------------|
B|-----------------------------------|
G|-----------------------------------|
D|--5--------------------------------|
A|--5--------------------------------|
D|--5--------------------------------|
Добавлено: 25.12.2013
Другие материалы по этой песне:
  • Аккорды и текст

Страница создана 01.05.2012
http://primanota.ru/l7/crackpot-baby-chords.htm
Привет, Гость.
Предлагаем пройти революционный курс по гитаре.
Подарок от PrimaNota.Ru, забирай!