PrimaNota.ru - самый крупный в мире бесплатный архив песенных текстов, аккордов, табулатур и нот


Kyuss - Supa Scoopa - текст песни, бас-таба, видео

Регистрация Запомнить меня
Войти через:  Facebook Google Twitter Vk Yandex Mail.ru

Kyuss - Supa Scoopa - текст песни, бас-таба, видео

Печатать
Просмотров: 87



Date: Tue, 30 Sep 2003 12:16:26 +0200
From: hordas@ozu.es
Subject: k/kyuss/supa_scoopa.btab

Kyuss- Supa Scoopa and the mighty scoop
Album : Sky Valley
Bass Player : Scott Reeder
Tab by: Hector Ordas (hordas@ozu.es)

Tune down to C

Fig.1
|--------------------------------------------------|
|--------------------------------------------------|
|-0-00000-00000-00000-00003-33333-33335-55552-2222-|
|--------------------------------------------------|

Pre-chorus        Chorus
|--------------|--------------|-----------|
|--------------|-5------5--3-5|----5777-7-|
|-0-00000-0000-|--3-33---0----|0-0--------|
|--------------|--------------|-----------|

Bridge
|------------10-12-12-------|
|----------10---------10-10-|
|-0-0-10-12-----------------|
|---------------------------| 

Fig.2
|---------------------------|
|--------------5--5-2-------|
|------------3--------5-3---|
|--5--5--3-5--------------3-| 


Fig.1 x4
Pre-chorus
Chorus x5
Bridge x7
Fig.1 x5
Pre-Chorus
Chorus x5
Drums
Bridge x12
Fig.2 till the end... Improvise over it... i can^Тt do all the job for you :) 

Transcribed by Hector Ordas (hordas@ozu.es) 


Добавлено: 18.09.2013
Другие материалы по этой песне:
  • Аккорды и текст

Страница создана 03.04.2012
http://primanota.ru/kyuss/supa-scoopa-chords.htm
Привет, Гость.
Предлагаем пройти революционный курс по гитаре.
Подарок от PrimaNota.Ru, забирай!