PrimaNota.ru - самый крупный в мире бесплатный архив песенных текстов, аккордов, табулатур и нот


Kyuss - Phototropic - текст песни, таба, бас-таба, видео

Регистрация Запомнить меня
Войти через:  Facebook Google Twitter Vk Yandex Mail.ru

Kyuss - Phototropic - текст песни, таба, бас-таба, видео

Печатать
Просмотров: 236
Уроки эстрадного вокала в Санкт-Петербурге
-----------------------------------------------------------------------------
                             PHOTOTROPHIC- Kyuss
-----------------------------------------------------------------------------
Tabbed by: Alex Coe
Email: Alex.Coe@colorado.edu

Tuning: C

Main Riff
6 |-----------------------------------------|
5 |-----------------------------------------|
4 |-----------------------------------------|
3 |---------9-99--99--7-5-7-----------------|
2 |---------7-77--77-/5-5-5-----------------|
1 |-0---------------------------------------|

4 |------------(bass)-----------------------|
3 |-----------------------------------------|
2 |-------3/5-777777---5-5~---5-5-5h7-------|
1 |--0-0------------------------------5h7---|


The main riff has 3 possible embellishments. These don't come up much after the intro.

------------|  ------------------|  ------------------|
------------|  ------------------|  ------------------|
-7--7h9-----|  -7--9~~~--10~~~---|  -7--9~~~----------|
--------7h9-|  -7----------------|  -7--------9~~~----|
------------|  -5----------------|  -5----------------|
------------|  ------------------|  ------------------|
(the bass doesn't change)


Jam Section
6 |-------------------------------------------------------------------|
5 |---------7~~---------/12-----------------8~~~---7h8p7-7 7h8p7------|
4 |-----7h9----------7h9------------11p911p9------------9-------9~(9)-|
3 |--(9)--------------------------------------------------------------|
2 |-7-------7-------7-------7-------5-------5------5-------5----------|
1 |-------------------------------------------------------------------|

|-----------------------------------------------------10--------|--------|
|---------7~~~--7-----7~~~-7-----8~~~--7-----7~~8.--8---8-7---7-|--------|
|-----7h9---------7h9--------7h9---------7h9----------------9---|--9br---|
|--(9)----------------------------------------------------------|--------|
|-7-------7-------7------7-------5-------5------5-------5-------|--7-----|
|---------------------------------------------------------------|--------|


    The "Heavy Part" is where John sings "up to the light..." You'll jam on the chords 
till the end.

  |------------------------------------------------------------------|
  |------------------------------------------------------------7h9p7-|
  |----------------------------------------------------7-7-9-9-------|
  |-9-------9-------9--9/10/9-7-----7--------7-----9-9---------------|
  |-7-------7-------7--7/-8/7-5-----5--------5----(5)-----(5)--------|
  |-0-------0-------0-------0----------------------------------------|

  |-------------------------------------------------------------|
  |-----------------------------------------7-7-8-8-101010br10--|
  |---------------------------------7-7-9-9---------------------|
  |-9-------9-------9--9/10/9---7-9-----------------------------|
  |-7-------7-------7--7/-8/7---5--(5)-----(5)-----(5)-----(5)--|
  |-0-------0-------0-------0-----------------------------------|


  |----------------------------------h-------h-----------10---------|
  |---------------------------------787---7-787---7-8.--8---8-7---7-|
  |-------------------------------------9-------9---------------9---|
  |-9-------9-------9--9/10/9---7-----------------------------------|
  |-7-------7-------7--7/-8/7---5--(5)-----(5)-----(5)-----(5)------|
  |-0-------0-------0-------0---------------------------------------|

The outro is just pounding on the C5.
Добавлено: 18.06.2012
Другие материалы по этой песне:
  • Аккорды и текст

Страница создана 25.02.2012
http://primanota.ru/kyuss/phototropic-chords.htm
Привет, Гость.
Предлагаем пройти революционный курс по гитаре.
Подарок от PrimaNota.Ru, забирай!