PrimaNota.ru - самый крупный в мире бесплатный архив песенных текстов, аккордов, табулатур и нот


Kyuss - Oddysey - таба, видео

Регистрация Запомнить меня
Войти через:  Facebook Google Twitter Vk Yandex Mail.ru

Kyuss - Oddysey - таба, видео

Печатать
Просмотров: 118
-------------------------------------------------------------------------------
                                Kyuss – Odyssey
-------------------------------------------------------------------------------

Tabbed by: brian_s
Email: branimir.sremec@kc.t-com.hr


INTRO:
W/Phaser              
C-----------------------------------------|
G-----------------------------------------|
D#----------------------------------------|
A#---7/9-9-9-9-9-9—-10/9--10/9--7-7-7-7---|
F----7/7-7-7-7-7-7---7/7---7/7--7-7-7-7---|
C-----------------------------------------|

C---------------------------------------------|
G---------------------------------------------|
D#--------------------------------------------|
A#---7/9-9-9-9-9-9—-10/9--10/9--12-12-12-12---|
F----7/7-7-7-7-7-7---7/7---7/7--10-10-10-10---|
C---------------------------------------------|

C-----------------------------------------|
G-----------------------------------------|
D#----------------------------------------|
A#---7/9-9-9-9-9-9—-10/9--10/9--7-7-7-7---|
F----7/7-7-7-7-7-7---7/7---7/7--7-7-7-7---|
C-----------------------------------------|

C-----------------------------------|
G-----------------------------------|
D#----------------------------------|
A#---7/9-9-9-9-9-9—-10/9--10/9--7---|
F----7/7-7-7-7-7-7---7/7---7/7--7---|
C-----------------------------------|


VERSE:
C--------------------------------------|
G--------------------------------------|
D#-----------------------------10-12---|  16x
A#---9-9-9--10/9--10/9--9-9-9--10-12---|
F----7-7-7---7/7---7/7--7-7-7---8-10---|
C----0-0-0-----------------------------|

CHORUS:
C------------------------------------------------------|
G------------------------------------------------------|
D#--------------9---12-12--------------9---9---12-12---|  2x
A#---9-9--8-8-8-----12-12---9-9--8-8-8---8-----12-12---|
F----7-7------------10-10---7-7----------------10-10---|
C----0-0--------------------0-0------------------------|

C-----------------------------|
G-----------------------------|
D#---9-------12-12---12--12---|
A#---9-------12-12---12--12---|
F----7-------10-10---10--10---|
C-----------------------------|

VERSE:
C--------------------------------------|
G--------------------------------------|
D#-----------------------------10-12---|  8x
A#---9-9-9--10/9--10/9--9-9-9--10-12---|
F----7-7-7---7/7---7/7--7-7-7---8-10---|
C----0-0-0-----------------------------|

CHORUS:
C------------------------------------------------------|
G------------------------------------------------------|
D#--------------9---12-12--------------9---9---12-12---|  2x
A#---9-9--8-8-8-----12-12---9-9--8-8-8---8-----12-12---|
F----7-7------------10-10---7-7----------------10-10---|
C----0-0--------------------0-0------------------------|

C-------------------------|
G-------------------------|
D#--------------9---9br---|  4x
A#---9-9--8-8-8---8-------|
F----7-7------------------|
C----0-0------------------|

C-------------------|
G-------------------|
D#--------------9---|
A#----------7h9-----|
F----7h9h10---------|
C-------------------|

SOLO:
02:03
C--------------------------------------|
G--------------------------------------|
D#----6------7-----6h7p4----6----4-----|
A#-------------------------------------|
F--------------------------------------|
C--------------------------------------|

C-----------------------------------------------|
G-----------------------------------------------|
D#----6h7---/9----6h7p6---7p6h7h9--9p7----9p7---|
A#----------------------------------------------|
F-----------------------------------------------|
C-----------------------------------------------|

02:23
C------------------------------------------------------------------|
G-----10h12----14/15-----14h15p14p12------14---12---10---12---10---|
D#-----------------------------------------------------------------|
A#-----------------------------------------------------------------|
F------------------------------------------------------------------|
C------------------------------------------------------------------|

C----------------------------------------------------------------------------|
G----14—-14h15---14h15p14p12-----14/15/17----15-17-15-14-----15---15/14/15---|
D#---------------------------------------------------------------------------|
A#---------------------------------------------------------------------------|
F----------------------------------------------------------------------------|
C----------------------------------------------------------------------------|

02:42
C---------------------------------------|
G----12--------10-12-----14-----15-14---|
D#--------------------------------------|
A#--------------------------------------|
F---------------------------------------|
C---------------------------------------|

C---------------------------------------------------|
G----12----10----8-----7---------8----7-------3/5---|
D#--------------------------------------------------|
A#--------------------------------------------------|
F---------------------------------------------------|
C---------------------------------------------------|

VERSE:
C--------------------------------------|
G--------------------------------------|
D#-----------------------------10-12---|  8x
A#---9-9-9--10/9--10/9--9-9-9--10-12---|
F----7-7-7---7/7---7/7--7-7-7---8-10---|
C----0-0-0-----------------------------|

CHORUS:
C------------------------------------------------------|
G------------------------------------------------------|
D#--------------9---12-12--------------9---9---12-12---|  2x
A#---9-9--8-8-8-----12-12---9-9--8-8-8---8-----12-12---|
F----7-7------------10-10---7-7----------------10-10---|
C----0-0--------------------0-0------------------------|

C------------------------|
G------------------------|
D#--------------9---9b---|  4x
A#---9-9--8-8-8---8------|
F----7-7-----------------|
C----0-0-----------------|

C------------------------------|
G------------------------------|
D#---9---------10-10-10--9-9---|
A#---9---------10-10-10--9-9---|
F----7----------8--8--8--7-7---|
C------------------------------|


P   =  pull of
h   =  hammer-on
b   =  bend note
/   =  slide
Добавлено: 04.05.2012
Другие материалы по этой песне:
  • Аккорды и текст

Страница создана 04.05.2012
http://primanota.ru/kyuss/oddysey-chords.htm
Привет, Гость.
Предлагаем пройти революционный курс по гитаре.
Подарок от PrimaNota.Ru, забирай!