PrimaNota.ru - самый крупный в мире бесплатный архив песенных текстов, аккордов, табулатур и нот


Kyuss - Mudfly - таба, бас-таба, видео

Регистрация Запомнить меня
Войти через:  Facebook Google Twitter Vk Yandex Mail.ru

Kyuss - Mudfly - таба, бас-таба, видео

Печатать
Просмотров: 220
-------------------------------------------------------------------------------
                                 Kyuss – Mudfly
-------------------------------------------------------------------------------

Tabbed by: brian_s
Email: branimir.sremec@kc.t-com.hr


C-----------------------------------6b--------------------------------|
G---------------------------------5-----------------------------------|
D#--------------------------------------------------------------------| 8x
A#---2---2-2-2-2-2---2-2-2-2-2----------------------------------------|
F----2---2-2-2-2-2---2-2-2-2-2----------------------------------------|
C----0---0-0-0-0-0---0-0-0-0-0----------------------------------------|

00:43
C---------------------------------------------------------------------|
G---------------------------------------------------------------------|
D#---3p0h6----0h3p0---4h6p4h6—-4p3p0----------------------------------| 3x
A#--------------------------------------------------------------------|
F---------------------------------------------------------------------|
C---------------------------------------------------------------------|


C---------------------------------------------------------------------|
G---------------------------------------------------------------------|
D#---3p0h6----6p4p3p0—-6p4p3------------------------------------------|
A#--------------------------------------------------------------------|
F---------------------------------------------------------------------|
C---------------------------------------------------------------------|


C---------------------------------------------------------------------|
G---------------------------------------------------------------------|
D#---3p0h6----4h6p4p3p0—-6p4p3----------------------------------------|
A#--------------------------------------------------------------------|
F---------------------------------------------------------------------|
C---------------------------------------------------------------------|


C---------------------------------------------------------------------|
G---------------------------------------------------------------------|
D#---3p0h6p4p3h4---6p4h6p4h6p4h6--------------------------------------|
A#--------------------------------------------------------------------|
F---------------------------------------------------------------------|
C---------------------------------------------------------------------|


C-----------------------------------6b--------------------------------|
G---------------------------------5-----------------------------------|
D#--------------------------------------------------------------------| 2x
A#---2---2-2-2-2-2---2-2-2-2-2----------------------------------------|
F----2---2-2-2-2-2---2-2-2-2-2----------------------------------------|
C----0---0-0-0-0-0---0-0-0-0-0----------------------------------------|


C---------------------------------12----------------------------------|
G------------------------------------11b------------------------------|
D#--------------------------------------------------------------------|
A#---2---2-2-2-2-2---2-2-2-2-2----------------------------------------|
F----2---2-2-2-2-2---2-2-2-2-2----------------------------------------|
C----0---0-0-0-0-0---0-0-0-0-0----------------------------------------|


C------------------------------------12-------------------------------|
G---------------------------------11----------------------------------|
D#--------------------------------------------------------------------|
A#---2---2-2-2-2-2---2-2-2-2-2----------------------------------------|
F----2---2-2-2-2-2---2-2-2-2-2----------------------------------------|
C----0---0-0-0-0-0---0-0-0-0-0----------------------------------------|

C-----------------------------------6b--------------------------------|
G---------------------------------5-----------------------------------|
D#--------------------------------------------------------------------| 4x
A#---2---2-2-2-2-2---2-2-2-2-2----------------------------------------|
F----2---2-2-2-2-2---2-2-2-2-2----------------------------------------|
C----0---0-0-0-0-0---0-0-0-0-0----------------------------------------|


C---------------------------------------------------------------------|
G---------------------------------------------------------------------|
D#---3p0h6----0h3p0---4h6p4h6—-4p3p0----------------------------------| 3x
A#--------------------------------------------------------------------|
F---------------------------------------------------------------------|
C---------------------------------------------------------------------|


C---------------------------------------------------------------------|
G---------------------------------------------------------------------|
D#---3p0h6----6p4p3p0—-6p4p3------------------------------------------|
A#--------------------------------------------------------------------|
F---------------------------------------------------------------------|
C---------------------------------------------------------------------|


C---------------------------------------------------------------------|
G---------------------------------------------------------------------|
D#---3p0h6----4h6p4p3p0—-6p4p3----------------------------------------| 3x
A#--------------------------------------------------------------------|
F---------------------------------------------------------------------|
C---------------------------------------------------------------------|


C---------------------------------------------------------------------|
G---------------------------------------------------------------------|
D#---3p0h6p4p3h4---6p4h6p4h6p4h6--------------------------------------|
A#--------------------------------------------------------------------|
F---------------------------------------------------------------------|
C---------------------------------------------------------------------|


C---------------------------------------------------------------------|
G---------------------------------------------------------------------|
D#--------------------------------------------------------------------| 8x
A#---2---2-2-2-2-2---2-2-2-2-2----------------------------------------|
F----2---2-2-2-2-2---2-2-2-2-2----------------------------------------|
C----0---0-0-0-0-0---0-0-0-0-0----------------------------------------|
Добавлено: 04.03.2012
Другие материалы по этой песне:

Страница создана 04.03.2012
http://primanota.ru/kyuss/mudfly-chords.htm
Привет, Гость.
Предлагаем пройти революционный курс по гитаре.
Подарок от PrimaNota.Ru, забирай!