PrimaNota.ru - самый крупный в мире бесплатный архив песенных текстов, аккордов, табулатур и нот


Kyuss - Into The Void - таба, видео

Регистрация Запомнить меня
Войти через:  Facebook Google Twitter Vk Yandex Mail.ru

Kyuss - Into The Void - таба, видео

Печатать
Просмотров: 127
Авторы: Geezer Butler, Ozzy Osbourne, Bill Ward, Tony Iommi

                             Into The Void (cover) - Kyuss
-----------------------------------------------------------------------------
Tabbed by: Shotgun Jesus

Tuning: C standard, low to high : C F A# D# G C


Intro:
(play 4x)
C |--------------------------------------------------------------------|
G |--------------------------------------------------------------------|
D#|--------------------------------------------------------------------|
A#|-----------------1----0---------------------------------------------|
F |-----0-1-2-----2----2----1~~--0h1p0---0h1p0---0h1p0----0---1-2------|
C |-0-3-------0------------------------3-------3-------3----------0-3--|

C |----0-0-0-0--------------------0-0-0-0----------------------|
G |----0-0-0-0--------------------0-0-0-0----------------------|
D#|----1-1-1-1--7-7-7-------------1-1-1-1--7--7-7--------------|
A#|----2-2-2-2--7-7-7-------------2-2-2-2--7--7-7------5----5--|
F |----2-2-2-2--5-5-5--7-6-5~-----2-2-2-2--5--5-5--5/7--5/7----|
C |-0--0-0-0-0--5-5-5---------0---0-0-0-0--5--5-5--------------|

C |-0--0-0-0-0-------------------------------------------|
G |-0--0-0-0-0-------------------------------------------|
D#|-1--1-1-1-1--7--7-7----------5-5-5-5-5-7--4-----------|
A#|-2--2-2-2-2--7--7-7----------5-5-5-5-5-7--4-----------|
F |-2--2-2-2-2--5--5-5--7-6-5~--3-3-3-3-3-5--2-----------|
C |-0--0-0-0-0--5--5-5----------------------------12/0---|

(play 2x)
C |--------------------------------------------------------------------|
G |--------------------------------------------------------------------|
D#|--------------------------------------------------------------------|
A#|-----------------1----0---------------------------------------------|
F |-----0-1-2-----2----2----1~~--0h1p0---0h1p0---0h1p0----0---1-2------|
C |-0-3-------0------------------------3-------3-------3----------0-3--|

Verse:

C |-------------------------------------------------------|
G |-------------------------------------------------------|
D#|-7/9---------7/9-------------7/9---------7/9-----------|
A#|-7/9---------7/9-------------7/9---------7/9-----------|
F |-5/7---------5/7---------5~~-5/7---------5/7-----------|
C |-----0-0-0-0-----0-0-0-0---------0-0-0-0-----0-0-5~~~~-|
        pm.....     pm.....         pm.....     pm...

C |----------------------------------------|
G |----------------------------------------|
D#|-------------7/9---------7/9------------|
A#|-------------7/9---------7/9------------|
F |-7-6-5-------5/7---------5/7-----5---5~-|
C |-------7-6-5-----0-0-0-0-----0-0---7----|
                    pm.....     ...

C |------------------------------------------------------------------|
G |------------------------------------------------------------------|
D#|-------------7/9---------7/9------------7/9---------7/9-----------|
A#|-------------7/9---------7/9------------7/9---------7/9-----------|
F |-7-6-5-------5/7---------5/7-----5-7-5~-5/7---------5/7-----------|
C |-------7-6-5-----0-0-0-0-----0-0------------0-0-0-0-----0-0-5~~~~-|
                   pm.......    pm...         pm.......    ...


C |-------------------------------------------------------|
G |-------------------------------------------------------|
D#|-7/9---------7/9-------------7/9---------7/9-----------|
A#|-7/9---------7/9-------------7/9---------7/9-----------|
F |-5/7---------5/7---------5~~-5/7---------5/7-----------|
C |-----0-0-0-0-----0-0-0-0---------0-0-0-0-----0-0-5~~~~-|
       pm.......    pm......       pm.......    ...

C |----------------------------------------|
G |----------------------------------------|
D#|-------------7/9---------7/9------------|
A#|-------------7/9---------7/9------------|
F |-7-6-5-------5/7---------5/7-----5-7-5~-|
C |-------7-6-5-----0-0-0-0-----0-0--------|
                   pm.......    ...

C |-----------------|
G |-----------------|
D#|-----------------|
A#|-------------2---|
F |-7-6-5-------2---|
C |-------7-6-5-0---|


Bridge


C |-------------------|
G |-------------------|
D#|-------------------|
A#|-------------------|
F |-------------------|
C |-0-3-0-5b(6)-5-3-0-|
slight pm.............


    (play 2x)
C |--------------------------------|
G |--------------------------------|
D#|--------------------------------|
A#|--------------------------------|
F |-7-6-5--------------------------|
C |-------7-6-5--0-3-0-5b(6)-5-3-0-|
                 slight pm.........


      (play 4x)
C |---------------------|
G |---------------------|
D#|---------------------|
A#|---------------------|
F |---------------------|
C |-0--3--0-5b(6)-5-3-0-|
slight pm.................

Solo:

C |-------------------------------------------------------------------------|
G |-------------------------------------------------------------------------|
D#|-/9~~~-7~~-6~~---6h7p6---7/9~-9-11-12-12-12--11h12p11p9h11---11-12-11-9~-|
A#|-----------------------7-------------------------------------------------|
F |-------------------------------------------------------------------------|
C |-------------------------------------------------------------------------|

C |-10----------|-------------|-------------------------------|
G |-------------|-------------|-------------------------------| 
D#|-----12--11--|7h9p7p6-7-6~-|6h7p6----6---------------------| 
A#|-------------|-------------|------7----7-5-7--5h7----------|
F |-------------|-------------|-----------------------7-7-5-7-| 
C |-------------|-------------|-------------------------------|

   
    (play 4x)
C |----------------|
G |----------------| 
D#|----------------| 
A#|--5h7-----------|
F |-------7-7-5-7--| 
C |----------------|
     


C |----------------------------------------------------------------------|
G |----------------------------------------------------------------------|
D#|---------7/9-9-9--9^(12)-9^(12)-9^(12)(r9)-7h9p7p6--7-6~---7--9--7h9p6|
A#|----------------------------------------------------------------------|
F |----------------------------------------------------------------------|
C |----------------------------------------------------------------------|

C |----------------------------------------------------------------|
G |----------------------------------------------------------------|
D#|7-6------------------6h7p6-----------------6h7p6----------------|
A#|----7-5-7b(8)-7-5----------7^(8)(r7)p5-----------7^(8)(r7)p5----|
F |------------------7--------------------7--------------------7---|
C |----------------------------------------------------------------|

C |-----------------------------------------------|
G |15-14------------------------------------------|
D#|------12-11-12-12-11h12p11p9h11-12-12/14-14-12-|
A#|-----------------------------------------------|
F |-----------------------------------------------|
C |-----------------------------------------------|

C |-----------------------------------------------------------------------|
G |-----------------------------------------------------------------------|
D#|11h12p11----11-12-12-11---11h12p11---11-12-12-9-----7-9-9^(11)-9-9-7-7-|
A#|--------14-------------------------14----------------------------------|
F |-----------------------------------------------------------------------|
C |-----------------------------------------------------------------------|

C |-------------------------------------------------------------|
G |-------------------------------------------------------------|
D#|6h7p6-6-7/9--9--7-9---7-9-9^(11)-9--9-7--6h7p6-6-7/9--9--7-9-|
A#|-----7----------------------------------------7--------------|
F |-------------------------------------------------------------|
C |-------------------------------------------------------------|

C |--10-9---------------10-9---------------10-9----------------|
G |------------------------------------------------------------|
D#|---------12-11-9~~----------12-11-9~~----------12-11-9~~----|
A#|------------------------------------------------------------|
F |------------------------------------------------------------|
C |------------------------------------------------------------|

C |-10-9-------------------------------------------------------------------|
G |------------------------------------------------------------------------|
D#|--------12-11-9~~~~---9~~~~~---16--14-12\11-12-12-11h12p11\9h11-12/14~--|
A#|------------------------------------------------------------------------|
F |------------------------------------------------------------------------|
C |------------------------------------------------------------------------|

C |-----------------------------------------------------------------|
G |-----------------------------------------------------------------|
D#|16-17-14-12-11-12--11h12p11\9h11-12-11~~----7-9-7/6~~---7-9-9-6~~|
A#|-----------------------------------------------------------------|
F |-----------------------------------------------------------------|
C |-----------------------------------------------------------------|

C |-------------------------------------------------------------------------|
G |-------------------------------------------------------------------------|
D#|-------------------------------------------6h7-6h7p6~~---------6p7--7/9~~|
A#|5h7p5--7^(8)-7----5h7p5-5~7~-------5h7p5~~-------------5h7p5-------------|
F |---------------7~-----------7~~-5h7-------------------------7~-----------|
C |-------------------------------------------------------------------------|

C |------------------------------------------------------------------|
G |------------------------------------------------------------------|
D#|-11h12p11-----11h12p11-----11h12p11-----11h12p11-----11h12p11-----|
A#|----------14-----------14-----------14-----------14-----------14--|
F |------------------------------------------------------------------|
C |------------------------------------------------------------------|

C |-----------------------------------------------|
G |-----------------------------------------------|
D#|-11-12-12-12/14~---11h12p11----11-12-12-12/14~-|
A#|----------------------------14-----------------|
F |-----------------------------------------------|
C |-----------------------------------------------|

C |----------------------------------------------|
G |----------------------------------------------|
D#|-16h17p16-16-14-14-12--11-11-12--11-11-9~~~~~~|
A#|----------------------------------------------|
F |----------------------------------------------|
C |----------------------------------------------|

(played 12x after solo with Wah-Wah pedal,second guitar with wah effect on muted strings)
C |-----------------------|
G |-----------------------|
D#|-----------------------|
A#|-----------------------|
F |-----------------------|
C |-0--3--0-5b(6)-5-3-0---|
   pm.................

C |--------------------------------------------------------|
G |--------------------------------------------------------|
D#|--------------------------------------------------------|
A#|--------------------------------------------------------|
F |-7~~6~~5~~------------------------------7~~6~~5~~-------|
C |----------7~~6~5~-----0-3-0-5b(6)-5-3-0----------7~~6~5~|
                       pm..................

Verse:

C |-------------------------------------------------------|
G |-------------------------------------------------------|
D#|-7/9---------7/9-------------7/9---------7/9-----------|
A#|-7/9---------7/9-------------7/9---------7/9-----------|
F |-5/7---------5/7---------5~~-5/7---------5/7-----------|
C |-----0-0-0-0-----0-0-0-0---------0-0-0-0-----0-0-5~~~~-|
       pm.......    pm.......       pm......    ...

C |----------------------------------------------------|
G |----------------------------------------------------|
D#|-------------7/9---------7/9------------------------|
A#|-------------7/9---------7/9------------------------|
F |-7-6-5-------5/7---------5/7-----5---5~-7-6-5-------|
C |-------7-6-5-----0-0-0-0-----0-0---7----------7-6-5-|
                    pm......    ...

Break:

C |-0--0---------------------------------------|
G |-0--0---------------------------------------|
D#|-1--1---------------------------------------|
A#|-2--2---------------------------------------|
F |-2--2-----------------10b(12)~--------------|
C |-0--0---------------------------------------|

C |-0--0----------------------------------------|
G |-0--0----------------------------------------|
D#|-1--1-----------------11--------14-----------|
A#|-2--2-----------------12b(14)---15b(17)------|
F |-2--2----------------------------------------|
C |-0--0----------------------------------------|

(long pause)

C |-0--0---------------------------------|
G |-0--0---------------------------------|
D#|-1--1-----------------9---------------|
A#|-2--2-----------------11b(13)---------|
F |-2--2---------------------------------|
C |-0--0---------------------------------|

C |--0--0------------------------------------------------|
G |--0--0----8-------8-------8-------8-------8-----------|
D#|--1--1----10b(12)-10b(12)-10b(12)-10b(12)-10b(12)(r9)-|
A#|--2--2------------------------------------------------|
F |--2--2------------------------------------------------|
C |--0--0------------------------------------------------|

2nd Solo:

C |---------------------------------------------------|
G |---------------------------------------------------|
D#|--7-9-9-7-9p7--------------------------------------|
A#|--------------5-7b(8)-5---------5-7-7-5-7p5--5-7/9-|
F |-------------------------7-5-7~~-----------7-------|
C |---------------------------------------------------|

C |----------------------------------------------------|
G |----------------------------------------------------|
D#|7-9-9---9-7-9b(12)-9(12)-9b(12)-9b(12)-9b(12)-7-9-7~|
A#|----------------------------------------------------|
F |----------------------------------------------------|
C |----------------------------------------------------|

C |---------------------------------------------------------12-12-|
G |-----------------------------------------------------15--------|
D#|-12-14-14-12-14p12----14-14b(16)-14b(16)-14b(16)-14b(16)-------|
A#|-------------------14------------------------------------------|
F |---------------------------------------------------------------|
C |---------------------------------------------------------------|

C |12h15p12----12h15p12----12h15p12----12h15p12----12-12-12-12--|
G |---------15----------15----------15----------15--------------|
D#|-------------------------------------------------------------|
A#|-------------------------------------------------------------|
F |-------------------------------------------------------------|
C |-------------------------------------------------------------|

C |-15b(17)-15b(18)(r15~~~)-15p12---12--------------------------------|
G |------------------------------15----15--12-10-10-10-8-8-10-8-------|
D#|-------------------------------------------------------------9~----|
A#|-------------------------------------------------------------------|
F |-------------------------------------------------------------------|
C |-------------------------------------------------------------------|

C |-------------------------------------------------------------------|
G |-8-10-10--8--8-10--------8-10-8----8-10-10--8--8-10--------8-10----|
D#|------------------9~-7-9-------9~-------------------9~-7-9------9~-|
A#|-------------------------------------------------------------------|
F |-------------------------------------------------------------------|
C |-------------------------------------------------------------------|


C |---------------------------------------------------|
G |---------------------------------------------------|
D#|-------------------------------------------7-9-9~~-|
A#|-7-5-7-5-7-5-7-5--7-7p5--5-----------5-7/9---------|
F |------------------------7-7-5h7~-5-7---------------|
C |---------------------------------------------------|

C |-------------------------------------------------------|
G |-------------------------------------------------------|
D#|-7-9-9b(12)--9b(12)--9b(12)--9b(12)--9b(12)(r9)-7-9-9--|
A#|-------------------------------------------------------|
F |-------------------------------------------------------|
C |-------------------------------------------------------|

C |---------------------------------------|
G |---------------------------------------|
D#|-7-9-9~-7-9-9~-7-9-9p7-7---------------|
A#|----------------------9-9-7\5-7b(8)-5~-|
F |---------------------------------------|
C |---------------------------------------|

Outro:
C |---------------------|
G |---------------------|
D#|---------------------|
A#|------------------5--|
F |-7-6-5-----5--6-7--7-|
C |-------7-------------|
(play 4x)

Добавлено: 12.07.2012
Другие материалы по этой песне:
  • Аккорды и текст

Страница создана 12.07.2012
http://primanota.ru/kyuss/into-the-void-chords.htm
Привет, Гость.
Предлагаем пройти революционный курс по гитаре.
Подарок от PrimaNota.Ru, забирай!