PrimaNota.ru - самый крупный в мире бесплатный архив песенных текстов, аккордов, табулатур и нот


Kyuss - Hurricane - текст песни, таба, бас-таба, видео

Регистрация Запомнить меня
Войти через:  Facebook Google Twitter Vk Yandex Mail.ru

Kyuss - Hurricane - текст песни, таба, бас-таба, видео

Печатать
Просмотров: 326
Kyuss - Hurricane

Verse

riff A:
|------------------------------------------------|
|------------------------------------------------|
|------------------------------------------------|
|--8----8--8-/11\-8--8-/10\-8--8--10-10-11-11\---|
|--8----8--8-/11\-8--8-/10\-8--8-----------------|
|--6----6--6-/-9\-6--6-/-8\-6--6-----------------|


riff B:
|------------------------------------------------|
|------------------------------------------------|
|------------------------------------------------|
|--8----8--8-/11\-8--8-/10\-8--8--11-11-10-10\---|
|--8----8--8-/11\-8--8-/10\-8--8-----------------|
|--6----6--6-/-9\-6--6-/-8\-6--6-----------------|


Chorus
riff C:
|------------------------------------------------------------------------------------|
|------------------------------------------------------------------------------------|
|------------------------------------------------------------------------------------|
|--8----8--8-/11-11-11-10----10-10-10-10-10-10-10-10-10-10-10-10-10-10-10--9--9--9---|
|--8----8--8-/11-11-11-10----10-10-10-10-10-10-10-10-10-10-10-10-10-10-10--9--9--9---|
|--6----6--6-/-9--9--9--8-----8--8--8--8--8--8--8--8--8--8--8--8--8--8--8--7--7--7---|


Ending
riff D:
|---------------------------------------------------------------------------------------|
|---------------------------------------------------------------------------------------|
|---------------------------------------------------------------------------------------|
|--8-8-8-8\7-7-7-7\6-6-6-6\5--5--5--5\-4--4--4--4\--3---3---3---3\---2----2----2-----2--|
|--8-8-8-8\7-7-7-7\6-6-6-6\5--5--5--5\-4--4--4--4\--3---3---3---3\---2----2----2-----2--|
|--6-6-6-6\5-5-5-5\4-4-4-4\3--3--3--3\-2--2--2--2\--1---1---1---1\---0----0----0-----0--|


NB!
Riff A & B - Intro & verse
Riff C - Chorus
Riff D - Outro

Rock on!
Добавлено: 27.04.2012
Другие материалы по этой песне:

Страница создана 29.02.2012
http://primanota.ru/kyuss/hurricane-chords.htm
Привет, Гость.
Предлагаем пройти революционный курс по гитаре.
Подарок от PrimaNota.Ru, забирай!