PrimaNota.ru - самый крупный в мире бесплатный архив песенных текстов, аккордов, табулатур и нот


Kyuss - Deadly Kiss - текст песни, таба, видео

Регистрация Запомнить меня
Войти через:  Facebook Google Twitter Vk Yandex Mail.ru

Kyuss - Deadly Kiss - текст песни, таба, видео

Печатать
Просмотров: 170
Kyuss - Deadly Kiss Tab
Written by Joshua Homme
Tabbed by Alejandro Pérez
Mail: anecsey@hotmail.com

Guitar Tune: C# (Three semitones down).
Advice: Try to play it with a good FUZZ PEDAL like Big Muff, Fuzzface or Fuzz Factory. 
Code: P.M. = Palm Mute

Note: Its not quite super accurate, but am sure it will work for you. 
Try to jam the solo, its more fun!





   Intro / First Riff
   0:02            0:07               0:27                
C#|-----------|-------------------|------------------------|
G#|-----------|-------------------|------------------------|
E |-----------|-------------------|------------------------|
B |-----------|-------------------|------------------------|
F#|-----------|7/5---7/5/7/8------|-222222--7/5/7-8-7/5/7--|
C#|-0/--0-0-0-|0/0---0/0/0/6------|-000000--0/0/0-6-5/3/5--|
W/ tremolo bend                    --P.M.--


   1:04 Break (before enter the verse)
C#|-6---6--5--6--5-5---6---6--5-5---6-6---5-5---5-5-5-|
G#|-6---6--5--6--5--5--6--6-6-5--5--6--6--5--5--5-5-5-|
E |-8---8--7--8--7---7-8-8----7---7-8---8-7---7-7-7-7-| 
B |-8---8--7--8--7-----8------7-----8-----7-----7-7-7-|
F#|-6---6--5--6--5-----6------5-----6-----5-----5-5-5-|
C#|-6---6--5--6--5-----6------5-----6-----5-----5-5-5-|

  Speed riff 1:37
   Used in the verse           Pre-chorus 2:12                    
"Look into my face now..."  "I can see throught your eyes"       
C#|-----------------------|---------10-10-10-----------3-3-3-3/5|
G#|-----------------------|---------10-10-10-----------3-3-3-3/5|
E |-----------------------|-9-9-9---12-12-12-----------5-5-5-5/7|
B |-----------------------|-9-9-9---12-12-12---2-2-2-2-5-5-5-5/7|
F#|---------------5^------|-7-7-7---10-10-10---2-2-2-2-3-3-3-3/5|
C#|-0-0-3^-0-5^-3^--------|-7-7-7---10-10-10-- 0-0-0-0-3-3-3-3/5|
                              PM       PM        PM      PM         


Chorus 2:30
"Drowning on your lonliness..."
C#|-2-2-2-3-3-3-5-5-5-5-5/-|
G#|-2-2-2-3-3-3-5-5-5-5-5/-|
E |-4-4-4-5-5-5-7-7-7-6-6/-|
B |-4-4-4-5-5-5-7-7-7-7-7/-|
F#|-2-2-2-3-3-3-5-5-5-7-7/-|
C#|-2-2-2-3-3-3-5-5-5-5-5/-|
    PM    PM    PM


   End of the chorus.                                          
    After this begins                                      
    the Guitar Solo.                                      
"With you...You...Fuck You"
C#|-2-2-2-3-3-3-5-5-5-5-5-5-5/|-----------------|-------|
G#|-2-2-2-3-3-3-5-5-5-5-5-5-5/|-----------------|-------|
E |-4-4-4-5-5-5-7-7-7-7-7-7-7/|-----------------|-------|
B |-4-4-4-5-5-5-7-7-7-7-7-7-7/|-----------------|-GUITAR|
F#|-2-2-2-3-3-3-5-5-5-5-5-5-5/|---------------5^|-SOLO--|
C#|-2-2-2-3-3-3-5-5-5-5-5-5-5/|-0-0-3^-0-5^-3^--|-------|
                                                         


 Last Verse  3:23
"Walk my way,Get out of my way"
C#|---------5-5--5--2-2--2--3-3--3-|
G#|---------5-5--5--2-2--2--3-3--3-|
E |---------7-7--7--4-4--4--5-5--5-|
B |-2-2--2--7-7--7--4-4--4--5-5--5-|
F#|-2-2--2--5-5--5--2-2--2--3-3--3-|
C#|-0-0--0--5-5--5--2-2--2--3-3--3-|
    PM-    -PM-    -PM-    -PM-

The rest of the song can be completed with 
the previous riffs showed on the top. 


Lyrics:
Look into my face now
Stare into my eyes
Hellfire in my veins
in my veins
in my veins
in my vein, yeah.

I can see through your eyes,
Its no disguise to me,
I can see through the lies,
No one can make a fool of me.

Drowning in your lonliness,
Want to bring me
down with you.
No one buys your innocence,
Gonna' break your
walls in two.
Well in two,
Well in two.

No one buys it,
No one wanted to,
With you,
You,
Fuck you.

Dig your grave for two.

Walk my way,
Get out of my way.
Well I wanted you,
I saw right through ya.
Well I'm your man,
You'll understand,
You'll pay the price,
To live in a-paradise.

Look into my face now,
Stare into my eyes.
Hellfire in my veins,
In my veins,
In my veins,
In my vein yeah.

I can see through your eyes,
Well its no disguise to me.
I can see through the lies,
No one can make a fool of me.

I'm drowning in
your lonliness,
Want to bring me
down with you.
No one buys your innocence,
Gonna break your
walls in two.
Well in two,
Well in two.

Well no one buys it,
No one wanted to,
With you,
You,
Fuck you.

Dig your grave for two.
Добавлено: 22.05.2012
Другие материалы по этой песне:
  • Аккорды и текст

Страница создана 28.03.2012
http://primanota.ru/kyuss/deadly-kiss-chords.htm
Привет, Гость.
Предлагаем пройти революционный курс по гитаре.
Подарок от PrimaNota.Ru, забирай!