PrimaNota.ru - самый крупный в мире бесплатный архив песенных текстов, аккордов, табулатур и нот


Kyshera - Mannequins - таба, видео

Регистрация Запомнить меня
Войти через:  Facebook Google Twitter Vk Yandex Mail.ru

Kyshera - Mannequins - таба, видео

Печатать
Просмотров: 72
-------------------------------------------------------------------------------
                             'MANNEQUINS' - KYSHERA (Album Version)
-------------------------------------------------------------------------------

www.kyshera.com

Tabbed by: Planck
E-mail: info@konicrecords.com

Tuning: B, F#, B, F#, B, C#

INTRO

Main Riff
                        *Harmonics behind nut                               
|----------------------+----------------------------------------------------|
|-----/10--3--4--------+------/10--3--4-------------------------------------|
|----------------------+-----------------3--2-------------------------------| X2
|-----/10--3--4--3--3---------/10--3--4-------------------------------------|
|----------------3--3--------------------3--2-------------------------------|
|--0-------------3--3------0------------------------------------------------|

Chorus

|--8--8----7----8--8----5----8--8----5--3--2--2-----------------------------|
|--10-10---7----10-10---7----10-10---7--4--0--0-----------------------------|
|--8--8----5----8--8----5----8--8----5--3--0--0-----------------------------|
|--10-10---7----10-10---7----10-10---7--4--0--0-----------------------------|
|--8--8----5----8--8----5----8--8----5--3--0--0-----------------------------|
|------------------------------------------0--0-----------------------------|


|--8--8----7----8--8----5----8--8----5--3--2--------------------------------|
|--10-10---7----10-10---7----10-10---7--4--0--------------------------------|
|--8--8----5----8--8----5----8--8----5--3--0--------------------------------|
|--10-10---7----10-10---7----10-10---7--4--0--------------------------------|
|--8--8----5----8--8----5----8--8----5--3-----------------------------------|
|---------------------------------------------------------------------------|

Main Riff
                        *Harmonics behind nut                               
|----------------------+----------------------------------------------------|
|-----/10--3--4--------+------/10--3--4-------------------------------------|
|----------------------+-----------------3--2-------------------------------| X2
|-----/10--3--4--3--3---------/10--3--4-------------------------------------|
|----------------3--3--------------------3--2-------------------------------|
|--0-------------3--3------0------------------------------------------------|

VERSE 1
                                                                            
|---------------------------------------------------------------------------|
|--0--0-------------0--0----------------------------------------------------|
|--9--9----10--10---9--9----8--8--7--7----5--5------------------------------| X2
|--0--0----10--10---0--0----8--8--8--10---9--9------------------------------|
|--0--0----8---8----0--0------------------5--5------------------------------|
|--0--0----8---8----0--0----8--8--8--8----5--5------------------------------|

PRE-CHORUS

Harmonics at fret 5 until…                                                  
|--+5--+5-----------------------7--7--5-------------------------------------|
|--+5--+5-----------------5--5--5--5--3-------------------------------------|
|--+5--+5-----------------3--3--5--5--3-------------------------------------| X2
|--+5--+5-----------------5--5--5--5--3-------------------------------------|
|-------------------------3--3--5--5--3-------------------------------------|
|-------------------------------5--5--3-------------------------------------|

Main Riff
Chorus
Main Riff

BREAK
**Leave ring, with pick scrapes throughout
|--0------------------------------------------------------------------------|
|--0------------------------------------------------------------------------|
|--0------------------------------------------------------------------------|
|--0------------------------------------------------------------------------|
|--0------------------------------------------------------------------------|
|--0------------------------------------------------------------------------|

Verse 2
Pre-Chorus

BRIDGE

|--10-10---5--5----6--6----1--1---------------------------------------------|
|--8--8----3--3----5--5----0--0----5--5----3--3----2----3--3----2-----------|
|--8--8----3--3----5--5----0--0----3--3----3--3----3----3--3----3-----------|
|--8--8----3--3----5--5----0--0----5--5-------------------------------------|
|--8--8----3--3----5--5----0--0----3--3----1--1----1----1--1----3-----------|
|--8--8----3--3----5--5----0--0---------------------------------------------|

BRIDGE RIFF

|---------------------------------------------------------------------------|. 
|---------------------------------------------------------------------------| .
|---------------------------------------------------------------------------|  .
|---------------------------------------------------------------------------|   .
|--------------------0--3--------------------------0--3---------------------|    .
|--00--3--4--5--6--------00--00----00--3--4--5--6--------00--0--------------|     .
                                                                                    X4
|---------------------------------------------------------------------------|     .
|---------------------------------------------------------------------------|    .
|---------------------------------------------------------------------------|   . 
|---------------------------------------------------------------------------|  .
|--------------------0--3--------------------------0--3---------------------| .
|--00--3--4--5--6--------00--00----00--3--4--5--6--------00--12\------------|.

Chorus x3

END

|---------------------------------------------------------------------------|
|--0------------------------------------------------------------------------|
|--0------------------------------------------------------------------------|
|--0------------------------------------------------------------------------|
|--0------------------------------------------------------------------------|
|--0------------------------------------------------------------------------|


************************************

| /   slide up
| \   slide down
| h   hammer-on
| p   pull-off
| ~   vibrato
| +   harmonic
| x   Mute note
| b   Bend
| pb  Pre-bend
| br  Bend release
| pbr Pre-bend release
| brb Bend release bend

************************************
Добавлено: 07.06.2013
Другие материалы по этой песне:
  • Аккорды и текст

Страница создана 07.06.2013
http://primanota.ru/kyshera/mannequins-chords.htm
Привет, Гость.
Предлагаем пройти революционный курс по гитаре.
Подарок от PrimaNota.Ru, забирай!