PrimaNota.ru - самый крупный в мире бесплатный архив песенных текстов, аккордов, табулатур и нот


Kyo - Dans Ma Chair - аккорды и текст, видео

Регистрация Запомнить меня
Войти через:  Facebook Google Twitter Vk Yandex Mail.ru

Kyo - Dans Ma Chair - аккорды и текст, видео

Печатать
Просмотров: 70
Авторы: Florian Dubos, Benoît Poher, Nicolas Chassagne, Fabien Dubos

Dans Ma Chair
Kyo
Intro : Bm / G / D / F#

       Bm
Si je m'inspire de vous, des nuits
             G
Aubes de mes dérives lucides
                     D
Du jour où les rues transpirent
Du vide autour des villes
     F#
Du moindre de mes désirs


       Bm
Si je transporte vos rêves, vos peines
              G
Vos haines et la mienne
                           D
La même qui règne à l'orée du ciel


Mon fleuve, ma sphère, nos chaînes
    F#
Rougeoyant dans ma chair
C'est par amour pour elle


Bm x2


           Bm
Les corps se frôlent
                           G
La rage enrôle au coeur de l'atome
                                D
Nos vieux fantômes, I want to go home
                                     F#
L'espoir nous ronge, faites place au virus autonome


       Bm
Si je pardonne, je m'offre encore
              G
Je tremble et raisonne
Je reste, je cherche
              D
Si j'oublie je donne
Ma vie mon ombre en somme
  F#
Jamais ne m'abandonne
                             2nd Guitar :
                     Bm       Sur Bm, G et D       A
C'est par amour pour toi     |----10----10----10-|----9----9----9---|
                     G       |-10----10----10----|-10---10---10-----|
C'est par amour pour elle    |-------------------|------------------|
                     D       |-------------------|------------------|
C'est par amour pour moi     |-------------------|------------------|
                    A        |-------------------|------------------|
Celui qui donne des ailes
                      Bm
Qui ne laisse pas le choix
                   G
Et qui en nous sommeille
                   D
Et qui en nous est roi
                     A
C'est par amour pour elle
                     G
C'est par amour pour toi


Instru :


  G          D          A         Bm           G        D        
|---0--2--5----0-2-5--|---0--2--5----7--2^3^2-|--0--2--5---0--2--5-|
|-3----------3--------|-3----------3----------|-3--------3---------|
|---------------------|-----------------------|--------------------|
|---------------------|-----------------------|--------------------|
|---------------------|-----------------------|--------------------|
|---------------------|-----------------------|--------------------|


 A             F#              
|---0--2--5----2--------|                      
|-3---------------------|                      
|-----------------------|                      
|-----------------------|
|-----------------------|                      
|-----------------------|


                     Bm       On Bm, G et D       A
C'est par amour pour toi     |----10----10----10-|----9----9----9---|
                     G       |-10----10----10----|-10---10---10-----|
C'est par amour pour elle    |-------------------|------------------|
                     D       |-------------------|------------------|
C'est par amour pour moi     |-------------------|------------------|
                    A        |-------------------|------------------|
Celui qui donne des ailes
                      Bm
Qui ne laisse pas le choix
                   G
Et qui en nous sommeille
                   D
Et qui en nous est roi
                     A
C'est par amour pour elle
                     G     D    A   Bm
C'est par amour pour toi


G      D       A            Bm
Allez, allez, rentrons chez nous
G      D      A (let ring)
Avant, avant qu'on nous torde le cou...
Добавлено: 04.05.2016
Другие материалы по этой песне:

Страница создана 05.03.2012
http://primanota.ru/kyo/dans-ma-chair-chords.htm
Привет, Гость.
Предлагаем пройти революционный курс по гитаре.
Подарок от PrimaNota.Ru, забирай!