PrimaNota.ru - самый крупный в мире бесплатный архив песенных текстов, аккордов, табулатур и нот


Kyo - Comment Te Dire - текст песни, таба, видео

Регистрация Запомнить меня
Войти через:  Facebook Google Twitter Vk Yandex Mail.ru

Kyo - Comment Te Dire - текст песни, таба, видео

Печатать
Просмотров: 152
Intro :

|------0--------0------0---------|
|--------4----4----------4----4--|
|----4---------------------------|  
|--2--------2------2--------2----|
|--------------------------------|
|--------------------------------|

1st Verse :

"Prisonnier de ton enchantement"					   

|------0--------0------0---------|----------------------------------------|
|--------4----4----------4----4--|----------------------------------------|
|----4---------------------------|----------------------------------------|
|--2--------2------2--------2----|--6-6-6-xxxxxxxxx------6-6-6-xxxxxxxxx--|
|--------------------------------|--6-6-6-xxxxxxxxx------6-6-6-xxxxxxxxx--|
|--------------------------------|--4-4-4-xxxxxxxxx------4-4-4-xxxxxxxxx--|

"En faire l'affaire de nos sentiments"

|------0--------0------0---------|
|--------4----4----------4----4--|
|----4---------------------------|
|--2--------2------2--------2----|
|--------------------------------|
|--------------------------------|

Guitar 1 :

|----------------------------------------||
|----------------------------------------||
|----------------------------------------||
|--6-6-6-xxxxxxxxx------6-6-6---4-4-4-4--||
|--6-6-6-xxxxxxxxx------6-6-6---4-4-4-4--||
|--4-4-4-xxxxxxxxx------4-4-4---2-2-2-2--||
					  |
Guitar 2 :				  |
 					  |
|----------------------------------------||
|----------------------------------------||
|-----------8---8---8--------------------||
|--6-6-6--66--66--66----6-6-6---4-4-4-4--||
|--6-6-6----------------6-6-6---4-4-4-4--||
|--4-4-4----------------4-4-4---2-2-2-2--||

"On dirait l'âme, on dirait le corps"					

|------0--------0------0---------|--------------------------------------|
|--------4----4----------4----4--|--------------------------------------|
|----4---------------------------|-------------555555-------------------|
|--2--------2------2--------2----|--6-6-6-xxx--555555--6-6-6---4-4-4-4--|
|--------------------------------|--6-6-6-xxx----------6-6-6---4-4-4-4--|
|--------------------------------|--4-4-4-xxx----------4-4-4---2-2-2-2--|
								             
                                    
|------0--------0------0---------|--------------------------------------|
|--------4----4----------4----4--|--------------------------------------|
|----4---------------------------|-------------8----------9---9~~~~~-9--|
|--2--------2------2--------2----|--6----------8----------9----------9--|
|--------------------------------|--6----------6----------7----------7--|
|--------------------------------|--4-----------------------------------|

Chorus :

|-------------------------------------------------------------|
|-------------------------------------------------------------|
|-----------------8--8--8-8--8---9--9--9-9--9---9--9--9-9--9--| x3
|--9--9--9-9--9---8--8--8-8--8---9--9--9-9--9---9--9--9-9--9--|
|--9--9--9-9--9---6--6--6-6--6---7--7--7-7--7---7--7--7-7--7--|
|--7--7--7-7--7-----------------------------------------------|


2nd verse + chorus : exactly the same thing that the 1st verse and 1st chorus


Bridge :

Guitar 1 

|----------------------------------------------------------|
|----------------------------------------------------------|
|------------------------9-9-9-----------------------------|
|-9-9------6-6-6--4-4-4--9-9-9---------------8b-8-8b-------|
|-9-9------6-6-6--4-4-4--7-7-7-----------------------------|
|-7-7------4-4-4--2-2-2------------------------------------|


Guitar 2

|-7~~~~~~--11-----9------12--------------------------------|
|----------------------------------------------------------|
|--------------------------------8---8-9---9-8---8-9-11-9--|
|----------------------------------9-----9-----9-----------|
|----------------------------------------------------------|
|----------------------------------------------------------|


Guitar 1

|------------------------------------------------|
|------------------------------------------------|
|---------------9-9-9--9-9-9-9-9-9-9-9-9-9-9-9---|
|-6-6-6--4-4-4--9-9-9--9-9-9-9-9-9-9-9-9-9-9-9---|
|-6-6-6--4-4-4--7-7-7--7-7-7-7-7-7-7-7-7-7-7-7---|
|-4-4-4--2-2-2-----------------------------------|


Guitar 2

|-11-----9------12-------------------------------|
|-----------------------------10-------------12--|
|-----------------------9---9-----9---12---9-----|
|-------------------------9---------9----9-------|
|------------------------------------------------|
|------------------------------------------------|


Chorus:

|-------------------------------------------------------------|
|-------------------------------------------------------------|
|-----------------8--8--8-8--8---9--9--9-9--9---9--9--9-9--9--| x3
|--9--9--9-9--9---8--8--8-8--8---9--9--9-9--9---9--9--9-9--9--|
|--9--9--9-9--9---6--6--6-6--6---7--7--7-7--7---7--7--7-7--7--|
|--7--7--7-7--7-----------------------------------------------|


Final ("Mais laisse moi te dire...") :
						"on n'sait rien..."
|--------------------------------------------------------------------|
|--------------------------------------------------------------------|
|--8--8-8--8--8--8-8---9--9-9--9--9--9-9---8--8-8--8--8--8--8-8---9--|
|--8--8-8--8--8--8-8---9--9-9--9--9--9-9---8--8-8--8--8--8--8-8---9--|
|--6--6-6--6--6--6-6---7--7-7--7--7--7-7---6--6-6--6--6--6--6-6---7--|
|--------------------------------------------------------------------|


|-----------------------------------------------------------------------|
|-----------------------------------------------------------------------|
|------------------8--8--8-8--8-----9--9--9-9--9------12--12--12-12--12-| 
|-9--9--9-9--9-----8--8--8-8--8-----9--9--9-9--9------12--12--12-12--12-| x4
|-9--9--9-9--9-----6--6--6-6--6-----7--7--7-7--7------10--10--10-10--10-|
|-7--7--7-7--7----------------------------------------------------------|


|-----|
|-----|
|-----|
|--9--|
|--9--|
|--7--|


Lyrics :

Prisonnier de ton enchantement
En faire l'affaire de nos sentiments
On dirait l'âme, on dirait le corps
Quand ton ennemi est le plus fort
Et moi je cours

Mais comment te dire
Les mots ne viennent pas
Libérer le son de ma voix
Je voudrais arrêter le temps
Passé en toi
Mais laisse-moi te dire

Pris au piège par le souffle imminent
De ton retour tout c'qui nous attend
On dirait l'âme, on dirait le sang
Tu touches mon coeur
L'esprit s'en ressent
Et moi je suis fou

Mais comment te dire
Les mots ne viennent pas
Libérer le son de ma voix
Je voudrais arrêter le temps
Passé en toi
Laisse-moi te dire

Comment te dire
Les mots ne viennent pas
Libérer le son de ma voix
Je voudrais arrêter le temps
Passé en toi
Mais laisse-moi te dire
En amour on n'sait rien
On est rien
On est rien
On est rien... 
Добавлено: 05.06.2012
Другие материалы по этой песне:

Страница создана 05.04.2012
http://primanota.ru/kyo/comment-te-dire-chords.htm
Привет, Гость.
Предлагаем пройти революционный курс по гитаре.
Подарок от PrimaNota.Ru, забирай!