PrimaNota.ru - самый крупный в мире бесплатный архив песенных текстов, аккордов, табулатур и нот


Kyng - Electric Halo - таба, видео

Регистрация Запомнить меня
Войти через:  Facebook Google Twitter Vk Yandex Mail.ru

Kyng - Electric Halo - таба, видео

Печатать
Просмотров: 67
-------------------------------------------------------------------------------
                             Electric Halo - Kyng
-------------------------------------------------------------------------------
Tabbed by: pkorove
E-mail: pkorove@gmail.com

Tuning: Standard E

intro
e|---------------------------------------------------------------------------|
B|-----------------------------------------9---------------------------------|
G|-9-8-9----12-11-9-8-9----12-11-11-9----8-9--9-8-9----12-11-9-8-9----12-11--|
D|-9-8-9-11-12-11-9-8-9-11-12-11-11-9-11-8----9-8-9-11-12-11-9-8-9-11-12-11--|
A|-------11-------------11------------11------------11-------------11--------|
E|---------------------------------------------------------------------------|

verse
e|---------9------------------------------------------------------------------|
B|---------9------------------------------------------------------------------|
G|---------9------------------------------------------------------------------|
D|---------9------------------------------------------------------------------|
A|-10-10-10--4-4-4-4-4--------------------------------------------------------|
E|-----------4-4-4-4-2--------------------------------------------------------|
      p.m.-- x x x x

chorus
e|---------------------------------------------------------------------------|
B|---------------------------------------------------------------------------|
G|---------------------------------------------------------------------------|
D|-9-9-9-9-9-9-9-9-7-7-7-7--2-9-9-9-9-9-9-9-9-7-7-7-7-x-x-x-x-x-x-x----------|
A|-9-9-9-9-9-9-9-9-7-7-7-7--2-9-9-9-9-9-9-9-9-7-7-7-7-x-x-x-x-x-x-x----------|
E|-7-7-7-7-6-6-6-6-5-5-5-5--0-7-7-7-7-6-6-6-6-5-5-5-5-x-x-x-x-x-x-x----------|

e|---------------------------------------------------------------------------|
B|---------------------------------------------------------------------------|
G|---------------------------------------------------------------------------|
D|-9-9-9-9-9-9-9-9-7-7-7-7--2-9-9-9-9-9--------------------------------------|
A|-9-9-9-9-9-9-9-9-7-7-7-7--2-9-9-9-9-9-9-7-5-7------------------------------|
E|-7-7-7-7-6-6-6-6-5-5-5-5--0-7-7-7-7-6--------------------------------------|

Then play intro verse chorus intro

bridge (has some effects)
e|---------------------------------------------------------------------------|
B|---------------------------------------------------------------------------|
G|-----2---2-----------------------------------------------------------------|
D|----9---9-x-x-x-4-x-x-x----------------------------------------------------|
A|---9---9--x-x-x-4-x-x-x-4--------------------------------------------------|
E|--7---6---x-x-x-2-x-x-x-4-----(x2)-----------------------------------------|

While playing solo (havent tabbed it yet)2nd guitar plays the intro

Then play the chorus (x2)
 
Second time play it like this
e|---------------------------------------------------------------------------|
B|---------------------------------------------------------------------------|
G|---------------------------------------------------------------------------|
D|-9-9-9-9-9-9-9-9-7-7-7-7--2-9-9-9-9-9-9-9-9-7-7-7-7------------------------|
A|-9-9-9-9-9-9-9-9-7-7-7-7--2-9-9-9-9-9-9-9-9-7-7-7-7------------------------|
E|-7-7-7-7-6-6-6-6-5-5-5-5--0-7-7-7-7-6-6-6-6-5-5-5-5-0-2-1-2----------------|

e|---------------------------------------------------------------------------|
B|---------------------------------------------------------------------------|
G|---------------------------------------------------------------------------|
D|-9-9-9-9-9-9-9-9-7-7-7-7--2-9-9-9-9-9--------------------------------------|
A|-9-9-9-9-9-9-9-9-7-7-7-7--2-9-9-9-9-9-9-7-5-7------------------------------|
E|-7-7-7-7-6-6-6-6-5-5-5-5--0-7-7-7-7-6--------------------------------------|

Last play the intro and after that:
e|---------------------------------------------------------------------------|
B|---------------------------------------------------------------------------|
G|---------------------------------------------------------------------------|
D|-0-------------------------------------------------------------------------|
A|-0-------------------------------------------------------------------------|
E|-0-------------------------------------------------------------------------|



************************************

| /   slide up
| \   slide down
| h   hammer-on
| p   pull-off
| ~   vibrato
| +   harmonic
| x   Mute note
| b   Bend
| pb  Pre-bend
| br  Bend release
| pbr Pre-bend release
| brb Bend release bend

************************************
Добавлено: 24.07.2015
Вам также может быть интересно:
Другие материалы по этой песне:
  • Аккорды и текст

Страница создана 24.07.2015
http://primanota.ru/kyng/electric-halo-chords.htm
Привет, Гость.
Предлагаем пройти революционный курс по гитаре.
Подарок от PrimaNota.Ru, забирай!