PrimaNota.ru - самый крупный в мире бесплатный архив песенных текстов, аккордов, табулатур и нот


Kylesa - Unknown Awareness - таба, видео

Регистрация Запомнить меня
Войти через:  Facebook Google Twitter Vk Yandex Mail.ru

Kylesa - Unknown Awareness - таба, видео

Печатать
Просмотров: 174
Авторы музыки: Phillip Cope, Laura Pleasants, Carl McGinley
Авторы текста: Phillip Cope, Laura Pleasants
                                      Kylesa
                                 Unknown Awareness

Guitar 1 Rhythm (Phil) (A G C F A D)

Guitar 2 Lead (Laura)  (A G C F A D)


Intro

Guitar 2 (0:20) Use Wah Pedal 
D|--------------------------------------------|
A|--------------------------------------------|
F|-7~~--7br7~~-----7--5--7----7br7~~~----7--5-|
C|--------------------------------------------|
G|--------------------------------------------|
A|--------------------------------------------|

Verse

Guitar 1 (0:32)
D|-------------------------------------------|
A|-------------------------------------------|
F|-7~~~-8--5--7~~--8--5--7~~--8--5--7~~-8--5-|
C|-x----x--x--x----x--x--x----x--x--x---x--x-|
G|-5~~~-6--3--5~~--6--3--5~~--6--3--5~~-6--3-|
A|-------------------------------------------|
 |
Guitar 2 (0:32) Use Wah Pedal
 |
D|--------------------------------------------|
A|--------------------------------------------|
F|-7~~--7br7~~-----7--5--7----7br7~~~----7--5-|
C|--------------------------------------------|
G|--------------------------------------------|
A|--------------------------------------------|


Pre-Chorus

Guitar 1 (0:44)
D|--------------------------------------------------------------| x4
A|--------------------------------------------------------------|
F|-7-7-7--7-7-7--7-7-7--7-7-7--10-10-10s-3-3-3s-10-10-10s-5-5-5-|
C|-x-x-x--x-x-x--x-x-x--x-x-x--x--x--x---x-x-x--x--x--x---x-x-x-|
G|-5-5-5--5-5-5--5-5-5--5-5-5--8--8--8s--5-5-5s-8--8--8s--3-3-3-|
A|--------------------------------------------------------------|
 |
Guitar 2 (0:44) Use Wah Pedal
 |
D|-10~----------------------------------------------| x4
A|-----------------------------11~--------------10~-|
F|--------------------------------------------------|
C|--------------------------------------------------|
G|--------------------------------------------------|
A|--------------------------------------------------|

Verse

Guitar 1 (1:08)
D|-------------------------------------------|
A|-------------------------------------------|
F|-7~~~-8--5--7~~--8--5--7~~--8--5--7~~-8--5-|
C|-x----x--x--x----x--x--x----x--x--x---x--x-|
G|-5~~~-6--3--5~~--6--3--5~~--6--3--5~~-6--3-|
A|-------------------------------------------|
 |
Guitar 2 (1:08) Use Wah Pedal
 |
D|--------------------------------------------|
A|--------------------------------------------|
F|-7~~--7br7~~-----7--5--7----7br7~~~----7--5-|
C|--------------------------------------------|
G|--------------------------------------------|
A|--------------------------------------------|


Chorus

Guitar 1 (1:20)
D|------------------------------------------------| x4
A|------------------------------------------------|
F|------------------------------------------------|
C|------------------------------------------------|
G|-5~-5-5-5~-5-5s8~-8--8--8-8s-3-3-3-3-3-3-3s-6-5-|
A|-3~-3-3-3~-3-3s6~-6--6--6-6s-1-1-1-1-1-1-1s-4-3-|
 |                                                
Guitar 2 (1:20)
 |                                                       Second Ending Add
D|------------------10 10~--10------------------------|x2  |---|
A|--------10~-10h11------------11-10------------------|    |---|
F|-7-9h10----------------------------10-9h10p9h10p9-6-|    |-7-|
C|----------------------------------------------------|    |---|
G|----------------------------------------------------|    |---|
A|----------------------------------------------------|    |---|

Guitar 2 (1:32)
D|-10-10-10-10--------------------------10-10-10-10--------------------------------| x2
A|--------------13-13-13--11-11-11-10~--------------13-13-13--11-11-11-10--11--10~-|
F|---------------------------------------------------------------------------------|
C|---------------------------------------------------------------------------------|
G|---------------------------------------------------------------------------------|
A|---------------------------------------------------------------------------------|


Verse

Guitar 1 (1:44)
D|-------------------------------------------|
A|-------------------------------------------|
F|-7~~~-8--5--7~~--8--5--7~~--8--5--7~~-8--5-|
C|-x----x--x--x----x--x--x----x--x--x---x--x-|
G|-5~~~-6--3--5~~--6--3--5~~--6--3--5~~-6--3-|
A|-------------------------------------------|
 |
Guitar 2 (1:44)
D|------------10~-------------------10~------|
A|-----------------------10~-----------------|
F|-------------------------------------------|
C|-------------------------------------------|
G|-------------------------------------------|
A|-------------------------------------------|


Pre-Chorus

Guitar 1 (1:56)
D|--------------------------------------------------------------| x4
A|--------------------------------------------------------------|
F|-7-7-7--7-7-7--7-7-7--7-7-7--10-10-10s-3-3-3s-10-10-10s-5-5-5-|
C|-x-x-x--x-x-x--x-x-x--x-x-x--x--x--x---x-x-x--x--x--x---x-x-x-|
G|-5-5-5--5-5-5--5-5-5--5-5-5--8--8--8s--5-5-5s-8--8--8s--3-3-3-|
A|--------------------------------------------------------------|
 |
Guitar 2 (1:56)
 |
D|-10~----------------------------------------------| x4
A|-----------------------------11~--------------10~-|
F|--------------------------------------------------|
C|--------------------------------------------------|
G|--------------------------------------------------|
A|--------------------------------------------------|


Chorus

Guitar 1 (2:20)
D|------------------------------------------------| x4
A|------------------------------------------------|
F|------------------------------------------------|   Final time hold the
C|------------------------------------------------|   last chord
G|-5~-5-5-5~-5-5s8~-8--8--8-8s-3-3-3-3-3-3-3s-6-5-|
A|-3~-3-3-3~-3-3s6~-6--6--6-6s-1-1-1-1-1-1-1s-4-3-| 
 |
Guitar 2 (2:20)
 |                                                      Second Ending Add
D|------------------10 10~--10------------------------|x2  |---|
A|--------10~-10h11------------11-10------------------|    |---|
F|-7-9h10----------------------------10-9h10p9h10p9-6-|    |-7-|
C|----------------------------------------------------|    |---|
G|----------------------------------------------------|    |---|
A|----------------------------------------------------|    |---|


Guitar 2 (2:32)
D|-10-10-10-10--------------------------10-10-10-10--------------------------------| x2
A|--------------13-13-13--11-11-11-10~--------------13-13-13--11-11-11-10--11--10~-|
F|---------------------------------------------------------------------------------|
C|---------------------------------------------------------------------------------|
G|---------------------------------------------------------------------------------|
A|---------------------------------------------------------------------------------|   


Bridge

Guitar 1 (2:49)
D|---------------------------|
A|---------------------------|
F|---------------------------|
C|---------------------------|
G|-6-5~~-----6-5~~-----6-5~~-|
A|-4-3~~-----4-3~~-----4-3~~-|


Guitar 1 (3:07)
D|------------------------------------------| x4
A|------------------------------------------|
F|------------------------------------------|
C|------------------------------------------|
G|-5--5-5-5--5-5-5-5--5--5-5-5--3-3-3-3-6-5-|
A|-3--3-3-3--3-3-3-3--3--3-3-3--1-1-1-1-4-3-|


Chorus

Guitar 1 (3:30)
D|------------------------------------------------| x4
A|------------------------------------------------|
F|------------------------------------------------|
C|------------------------------------------------|
G|-5~-5-5-5~-5-5s8~-8--8--8-8s-3-3-3-3-3-3-3s-6-5-|
A|-3~-3-3-3~-3-3s6~-6--6--6-6s-1-1-1-1-1-1-1s-4-3-|
 |
Guitar 2 (3:30)
 |                                                      Second Ending Add
D|------------------10 10~--10------------------------|x2  |---|
A|--------10~-10h11------------11-10------------------|    |---|
F|-7-9h10----------------------------10-9h10p9h10p9-6-|    |-7-|
C|----------------------------------------------------|    |---|
G|----------------------------------------------------|    |---|
A|----------------------------------------------------|    |---|

Guitar 2 (3:42)
D|-10-10-10-10--------------------------10-10-10-10--------------------------------| x2
A|--------------13-13-13--11-11-11-10~--------------13-13-13--11-11-11-10--11--10~-|
F|---------------------------------------------------------------------------------|
C|---------------------------------------------------------------------------------|
G|---------------------------------------------------------------------------------|
A|---------------------------------------------------------------------------------|

Outro

Guitar 1 (3:53)
D|-----------------------------------------| x4
A|-----------------------------------------|
F|-----------------------------------------|
C|-----------------------------------------|
G|-5~--5-5~--5-5-5-5--8~--8-8~-3-3-3-3-6-5-|
A|-3~--3-3~--3-3-3-3--6~--6-6~-1-1-1-1-4-3-|
 |
Guitar 2 (3:53)
 |                                                      Second Ending Add
D|------------------10 10~--10------------------------|x2  |---|
A|--------10~-10h11------------11-10------------------|    |---|
F|-7-9h10----------------------------10-9h10p9h10p9-6-|    |-7-|
C|----------------------------------------------------|    |---|
G|----------------------------------------------------|    |---|
A|----------------------------------------------------|    |---|

Guitar 2
D|-10-10-10-10--------------------------10-10-10-10--------------------------------| x2
A|--------------13-13-13--11-11-11-10~--------------13-13-13--11-11-11-10--11--10~-|
F|---------------------------------------------------------------------------------|
C|---------------------------------------------------------------------------------|
G|---------------------------------------------------------------------------------|
A|---------------------------------------------------------------------------------|
Добавлено: 28.04.2012
Другие материалы по этой песне:
  • Аккорды и текст

Страница создана 28.04.2012
http://primanota.ru/kylesa/unknown-awareness-chords.htm
Привет, Гость.
Предлагаем пройти революционный курс по гитаре.
Подарок от PrimaNota.Ru, забирай!