PrimaNota.ru - самый крупный в мире бесплатный архив песенных текстов, аккордов, табулатур и нот


Kylesa - Scapegoat - таба, бас-таба, видео

Регистрация Запомнить меня
Войти через:  Facebook Google Twitter Vk Yandex Mail.ru

Kylesa - Scapegoat - таба, бас-таба, видео

Печатать
Просмотров: 187
Авторы музыки: Phillip Cope, Laura Pleasants, Carl McGinley
Авторы текста: Phillip Cope, Laura Pleasants
Song: SCAPEGOAT
Band: KYLESA
Album: STATIC TENSIONS
Tuning: Standard
Tabbed by: D00M$D@yM@CH|N3
Email me at doomsdaymachin3@gmail.com
This is my first tab so go easy on me. I think it's in standard. It should sound alright 
if you have it tuned that way.

Verse (play x2) Listen to song for how it goes
|--------------------------------------------------------------|
|--------------------------------------------------------------|
|--------------------------------------------------------------|
|--------------------------------------------------------------|
|-8-8-8--11-11-11--6-6---5-5-5-5-5-5-----8-8/10-10/5-5-5-5-5-5-|
|-6-6-6---9--9--9--4-4---3-3-3-3-3-3h6 --6-6/8--8/-3-3-3-3-3-3-|

Chorus 0:41
----------------------------------------------------------|
----------------------------------------------------------|
----------------------------------------------------------|
----------------------------------------------------------|
-8-8-8--11-11-11--6-6--8-8-8-11-11-11--6-6--5-5-5-5-5-5-5-|
-6-6-6---9--9--9--4-4--6-6-6--9--9--9--4-4--3-3-3-3-3-3-3-|

----------------------------------------------------------|
----------------------------------------------------------|
----------------5/4-4-4-4-4-4-4---------------------------|
5/4-4-4-4-4-4-4-3/2-2-2-2-2-2-2---------------------------|
3/2-2-2-2-2-2-2------------------14-15-14/5-5-5-5-5-5-5-5-|
---------------------------------12-13-12/3-3-3-3-3-3-3-3-|

--------------------------------------------|
--------------------------------------------|
----------------5/4-4-4-4-4-4-4-------------|
5/4-4-4-4-4-4-4-3/2-2-2-2-2-2-2-------------|
3/2-2-2-2-2-2-2-----------------14-15-17-15-|
--------------------------------12-13-15-13-|

-----------------------------------------------------------|
-----------------------------------------------------------|
---------------------------------5/4-4-4-4-4-4-4-----------|
-----------------5/4-4-4-4-4-4-4-3/2-2-2-2-2-2-2-----------|
-5-5-5-5-5-5-5-5-3/2-2-2-2-2-2-2------------------14-15-14-|
-3-3-3-3-3-3-3-3----------------------------------12-13-12-|

-------------------------------------------------------------|
-------------------------------------------------------------|
---------------------------------5/4-4-4-4-4-4-4-------------|
-----------------5/4-4-4-4-4-4-4-3/2-2-2-2-2-2-2----12-5-5-8-|
-5-5-5-5-5-5-5-5-3/2-2-2-2-2-2-2--------------------10-3-3-6-|
-3-3-3-3-3-3-3-3---------------------------------------------|

Verse 2 (play x2) 1:07
-----------------------------------------------------------|
-----------------------------------------------------------|
-----------------------------------------------------------|
-----------------------------------------------------------|
-5-5-5-5-5-5-----8-8/10-10/5-5-5-5-5-5-8-8-8--11-11-11-6-6-|
-3-3-3-3-3-3h6 --6-6/8--8/-3-3-3-3-3-3-6-6-6--9--9--9--4-4-|
Pre-chorus
----------------------|
----------------------|
----------------------|
----------------------|
-8-8-8--11-11-11--6-6-|
-6-6-6---9--9--9--4-4-|

Chorus 1:32
----------------------|
----------------------|
----------------------|
----------------------|
---5-5-5-5-5-5-5------|
---3-3-3-3-3-3-3------|

----------------------------------------------------------|
----------------------------------------------------------|
----------------5/4-4-4-4-4-4-4---------------------------|
5/4-4-4-4-4-4-4-3/2-2-2-2-2-2-2---------------------------|
3/2-2-2-2-2-2-2------------------14-15-14/5-5-5-5-5-5-5-5-|
---------------------------------12-13-12/3-3-3-3-3-3-3-3-|

--------------------------------------------|
--------------------------------------------|
----------------5/4-4-4-4-4-4-4-------------|
5/4-4-4-4-4-4-4-3/2-2-2-2-2-2-2-------------|
3/2-2-2-2-2-2-2-----------------14-15-17-15-|
--------------------------------12-13-15-13-|

-----------------------------------------------------------|
-----------------------------------------------------------|
---------------------------------5/4-4-4-4-4-4-4-----------|
-----------------5/4-4-4-4-4-4-4-3/2-2-2-2-2-2-2-----------|
-5-5-5-5-5-5-5-5-3/2-2-2-2-2-2-2------------------14-15-14-|
-3-3-3-3-3-3-3-3----------------------------------12-13-12-|

--------------------------------------------------------------------------|
--------------------------------------------------------------------------|
--------------------------------------5/4-4-4-4-4-4-4---------------------|
-----------------5/4-4-4-4-4-4-4-3/2-2-2-2-2-2-2------12-5-5-8---12-5-5-8-|
-5-5-5-5-5-5-5-5-3/2-2-2-2-2-2-2----------------------10-3-3-6---10-3-3-6-|
-3-3-3-3-3-3-3-3----------------------------------------------------------|
Solo 1:56
I am going to skip this. If enough people want it up I will give it a shot though


Bridge 2:30
This part is heavily distorted with some sort of reverb or something going on too
----------------------|
----------------------|
----------------------|
----------------------|
-8-8-8--11-11-11--x-6-|
-6-6-6--9--9--9---x-4-|
Pre-chorus 2:53
-------------------------------------------|
-------------------------------------------|
-------------------------------------------|
-------------------------------------------|
-8-8-8--11-11-11--6-6--8-8-8--11-11-11-6-6-|
-6-6-6--9--9--9---4-4--6-6-6--9--9--9--4-4-|
Chorus 2:56
-----------------|
-----------------|
-----------------|
-----------------|
---5-5-5-5-5-5-5-|
---3-3-3-3-3-3-3-|

----------------------------------------------------------|
----------------------------------------------------------|
----------------5/4-4-4-4-4-4-4---------------------------|
5/4-4-4-4-4-4-4-3/2-2-2-2-2-2-2---------------------------|
3/2-2-2-2-2-2-2------------------14-15-14/5-5-5-5-5-5-5-5-|
---------------------------------12-13-12/3-3-3-3-3-3-3-3-|

--------------------------------------------|
--------------------------------------------|
----------------5/4-4-4-4-4-4-4-------------|
5/4-4-4-4-4-4-4-3/2-2-2-2-2-2-2-------------|
3/2-2-2-2-2-2-2-----------------14-15-17-15-|
--------------------------------12-13-15-13-|

-----------------------------------------------------------|
-----------------------------------------------------------|
---------------------------------5/4-4-4-4-4-4-4-----------|
-----------------5/4-4-4-4-4-4-4-3/2-2-2-2-2-2-2-----------|
-5-5-5-5-5-5-5-5-3/2-2-2-2-2-2-2------------------14-15-14-|
-3-3-3-3-3-3-3-3----------------------------------12-13-12-|

-------------------------------------------------|
-------------------------------------------------|
---------------------------------5/4-4-4-4-4-4-4-|
-----------------5/4-4-4-4-4-4-4-3/2-2-2-2-2-2-2-|
-5-5-5-5-5-5-5-5-3/2-2-2-2-2-2-2-----------------|
-3-3-3-3-3-3-3-3---------------------------------|

-------------------------|
-------------------------|
-------------------------|
-12-5-5-8---12-5-5-8-----|
-10-3-3-6---10-3-3-6---5-|
-----------------------3-|
Добавлено: 03.04.2012
Другие материалы по этой песне:

Страница создана 03.04.2012
http://primanota.ru/kylesa/scapegoat-chords.htm
Привет, Гость.
Предлагаем пройти революционный курс по гитаре.
Подарок от PrimaNota.Ru, забирай!