PrimaNota.ru - самый крупный в мире бесплатный архив песенных текстов, аккордов, табулатур и нот


Kylesa - Running Red - таба, видео

Регистрация Запомнить меня
Войти через:  Facebook Google Twitter Vk Yandex Mail.ru

Kylesa - Running Red - таба, видео

Печатать
Просмотров: 181
Авторы музыки: Phillip Cope, Laura Pleasants, Carl McGinley
Авторы текста: Phillip Cope, Laura Pleasants
                               Running Red                                   


                                 Kylesa

Tab by CapnKickass

For those without GPro :)

GUITAR 1


   Piano plays
A||-------|-------|-------|-------|-------|-------|-------|-------|-------|
E||-------|-------|-------|-------|-------|-------|-------|-------|-------|
C||-------|-------|-------|-------|-------|-------|-------|-------|-------|
G||-------|-------|-------|-------|-------|-------|-------|-------|-------|
D||-------|-------|-------|-------|-------|-------|-------|-------|-------|
G||-------|-------|-------|-------|-------|-------|-------|-------|-------|


-------|-------|-------|-------|-------|-------|-------|
-------|-------|-------|-------|-------|-------|-------|
-------|-------|-------|-------|-------|-------|-------|
-------|-------|-------|-------|-------|-------|-------|
-------|-------|-------|-------|-------|-------|-------|
-------|-------|-------|-------|-------|-------|-------|

guitar intro

17 
  Q     Q      Q     Q        Q      Q     Q      Q     
--------------------------|----------------------------|
--------------------------|----------------------------|
--------------------------|----------------------------|
-------10s----12----12----|--13p----12----13p----12----|
--------------------------|----------------------------|
--0-----------------------|----------------------------|

19
  Q     Q      Q     Q        Q      Q     H          Q    Q      Q    Q     
--------------------------|-------------------------|-----------------------|
--------------------------|-------------------------|-----------------------|
--------------------------|-------------------------|-----------------------|
-------10s----12----12----|--13p----12----10--------|------10s---12----12---|
--------------------------|-------------------------|-----------------------|
--0-----------------------|-------------------------|-0---------------------|

22                           VERSE
   Q      Q     Q      Q       Q     Q      Q     Q     
----------------------------|--------------------------|
----------------------------|--------------------------|
----------------------------|--------------------------|
--13p----12----13p----12----|-------10s----12----12----|
----------------------------|--------------------------|
----------------------------|--0-----------------------|

24
   Q      Q     H           Q     Q      Q     Q     
-------------------------|--------------------------|
-------------------------|--------------------------|
-------------------------|--------------------------|
--13p----12----10--------|-------10s----12----12----|
-------------------------|--------------------------|
-------------------------|--0-----------------------|

26
   Q      Q     Q      Q       Q     Q      Q     Q     
----------------------------|--------------------------|
----------------------------|--------------------------|
----------------------------|--------------------------|
--13p----12----13p----12----|-------10s----12----12----|
----------------------------|--------------------------|
----------------------------|--0-----------------------|

28
   Q      Q     H           Q     Q      Q     Q     
-------------------------|--------------------------|
-------------------------|--------------------------|
-------------------------|--------------------------|
--13p----12----10--------|-------10s----12----12----|
-------------------------|--------------------------|
-------------------------|--0-----------------------|

30
   Q      Q     Q      Q       Q     Q      Q     Q     
----------------------------|--------------------------|
----------------------------|--------------------------|
----------------------------|--------------------------|
--13p----12----13p----12----|-------10s----12----12----|
----------------------------|--------------------------|
----------------------------|--0-----------------------|

32
   Q      Q     H           Q     Q      Q     Q     
-------------------------|--------------------------|
-------------------------|--------------------------|
-------------------------|--------------------------|
--13p----12----10--------|-------10s----12----12----|
-------------------------|--------------------------|
-------------------------|--0-----------------------|

34
   Q      Q     Q      Q       Q     Q      Q     Q     
----------------------------|--------------------------|
----------------------------|--------------------------|
----------------------------|--------------------------|
--13p----12----13p----12----|-------10s----12----12----|
----------------------------|--------------------------|
----------------------------|--0-----------------------|

36
   Q      Q     H           Q     Q      Q     Q     
-------------------------|--------------------------|
-------------------------|--------------------------|
-------------------------|--------------------------|
--13p----12----10--------|-------10s----12----12----|
-------------------------|--------------------------|
-------------------------|--0-----------------------|

38
   Q      Q     Q      Q       Q     Q      Q     Q     
----------------------------|--------------------------|
----------------------------|--------------------------|
----------------------------|--------------------------|
--13p----12----13p----12----|-------10s----12----12----|
----------------------------|--------------------------|
----------------------------|--0-----------------------|

40
   Q      Q     H           Q     Q      Q     Q     
-------------------------|--------------------------|
-------------------------|--------------------------|
-------------------------|--------------------------|
--13p----12----10--------|-------10s----12----12----|
-------------------------|--------------------------|
-------------------------|--0-----------------------|

42
   Q      Q     Q      Q       Q     Q      Q     Q     
----------------------------|--------------------------|
----------------------------|--------------------------|
----------------------------|--------------------------|
--13p----12----13p----12----|-------10s----12----12----|
----------------------------|--------------------------|
----------------------------|--0-----------------------|

44
   Q      Q     H           Q     Q      Q     Q     
-------------------------|--------------------------|
-------------------------|--------------------------|
-------------------------|--------------------------|
--13p----12----10--------|-------10s----12----12----|
-------------------------|--------------------------|
-------------------------|--0-----------------------|

46
   Q      Q     Q      Q       Q     Q      Q     Q     
----------------------------|--------------------------|
----------------------------|--------------------------|
----------------------------|--------------------------|
--13p----12----13p----12----|-------10s----12----12----|
----------------------------|--------------------------|
----------------------------|--0-----------------------|

                          SWEET RIFF
48                          PM   PM                    
   Q      Q     H           Q    Q     E    E   Q      
-------------------------|----------------------------|
-------------------------|----------------------------|
-------------------------|----------------------------|
--13p----12----10--------|------------10h--12--12~----|
-------------------------|--0----0--------------------|
-------------------------|--0----0--------------------|

50
  PM   PM PM                    PM PM PM                        
  Q    E  E   E    E   Q        E  E  Q     S   S   E   E   E   
-----------------------------|---------------------------------|
-----------------------------|---------------------------------|
-----------------------------|-------------10h-11p-10--10------|
-------------12h--13--13~----|-----------------------------13--|
--0----0--0------------------|--0--0--0------------------------|
--0----0--0------------------|--0--0--0------------------------|


52                                  PM   PM                    
   E   E   E   E   E   E   Q        Q    Q     E    E   Q      
---------------------------------|----------------------------|
---------------------------------|----------------------------|
--10-----------------------------|----------------------------|
------13--12--10--12--13--12\----|------------10h--12--12~----|
---------------------------------|--0----0--------------------|
---------------------------------|--0----0--------------------|

54
  PM   PM                      PM   PM                        
  Q    Q     E    E   Q        Q    Q     S   S   E   E   E   
----------------------------|--------------------------------|
----------------------------|--------------------------------|
----------------------------|------------10h-11p-10--10------|
------------12h--13--13~----|----------------------------13--|
--0----0--------------------|--0----0------------------------|
--0----0--------------------|--0----0------------------------|


56                                  PM   PM                   
   E   E   E   E   E   E   Q        Q    Q     E   E   Q      
---------------------------------|---------------------------|
---------------------------------|------------13--15--15~----|
--10-----------------------------|---------------------------|
------13--12--10--12--13--12\----|---------------------------|
---------------------------------|--0----0-------------------|
---------------------------------|--0----0-------------------|

58
  PM   PM                     PM   PM                        
  Q    Q     E   E   Q        Q    Q     S   S   E   E   E   
---------------------------|------------13h-14p-13--13------|
------------15--16--16~----|----------------------------16--|
---------------------------|--------------------------------|
---------------------------|--------------------------------|
--0----0-------------------|--0----0------------------------|
--0----0-------------------|--0----0------------------------|


60                                  PM   PM                    
   E   E   E   E   E   E   Q        Q    Q     E    E   Q      
--13-----------------------------|----------------------------|
------16--15--13--15--16--15\----|----------------------------|
---------------------------------|----------------------------|
---------------------------------|------------10h--12--12~----|
---------------------------------|--0----0--------------------|
---------------------------------|--0----0--------------------|

62
  PM   PM PM                    PM PM PM                
  Q    E  E   E    E   Q        E  E  Q     Q     Q     
-----------------------------|-------------------------|
-----------------------------|-------------------------|
-----------------------------|-------------14----14----|
-------------12h--13--13~----|-------------12----12----|
--0----0--0------------------|--0--0--0----12----12----|
--0----0--0------------------|--0--0--0----------------|

                              HEAVY
64                                      PM PM PM PM PM PM  
   Q     Q     Q      E  E      E    E  E  E  E  E  E  E   
----------------------------|-----------------------------|
----------------------------|-----------------------------|
--14----14----14br----L-----|-----------------------------|
--12----12----12br----L-----|-----------------------------|
--12----12----12br----L-----|-----------------------------|
----------------------------|--12s--13--0--0--0--0--0--0--|


66      PM PM PM PM PM PM          PM PM PM PM PM PM  
   Q    E  E  E  E  E  E      Q    E  E  E  E  E  E   
--------------------------|--------------------------|
--------------------------|--------------------------|
--------------------------|--------------------------|
--------------------------|--------------------------|
--------------------------|--------------------------|
--13----0--0--0--0--0--0--|--13----0--0--0--0--0--0--|

68
  PM PM PM PM PM PM PM PM PM             PM PM PM PM PM PM  
  E  E  E  S  S  E  E  E  E      E    E  E  E  E  E  E  E   
-----------------------------|-----------------------------|
-----------------------------|-----------------------------|
-----------------------------|-----------------------------|
-----------------------------|-----------------------------|
-----------------------------|-----------------------------|
--0--0--0--0--0--0--0--0--0--|--12s--13--0--0--0--0--0--0--|


70      PM PM PM PM PM PM          PM PM PM PM PM PM  
   Q    E  E  E  E  E  E      Q    E  E  E  E  E  E   
--------------------------|--------------------------|
--------------------------|--------------------------|
--------------------------|--------------------------|
--------------------------|--------------------------|
--------------------------|--------------------------|
--13----0--0--0--0--0--0--|--13----0--0--0--0--0--0--|

72                            CHORUS
 PM PM PM PM PM PM PM PM PM                                                  
  E  E  E  S  S  E  E  E  E     H        Q      Q        H        Q    Q     
-----------------------------|-----------------------|----------------------|
-----------------------------|-----------------------|----------------------|
-----------------------------|-----------------------|----------------------|
-----------------------------|--8--------8s---12-----|-12--------12----8----|
-----------------------------|--6--------6s---10-----|-10--------10----6----|
--0--0--0--0--0--0--0--0--0--|-----------------------|----------------------|

75
   H         Q     Q         H         Q.      E      E   E  Q     Q.    E   
------------------------|-------------------------|-------------------------|
------------------------|-------------------------|-------------------------|
------------------------|--/14--------14----------|-------------------------|
--15--------15----12----|--/12--------12------10--|--12--12--8----10----10--|
--13--------13----10----|----------------------8--|--10--10--6-----8-----8--|
------------------------|-------------------------|-------------------------|

78
   E   E  Q     Q.     E     E  E  E  E  E  E  Q     
--------------------------|-------------------------|
--------------------------|-------------------------|
--------------------------|-------------------------|
--12--12--8----10------7--|--8--7--8--7--8--7-------|
--10--10--6-----8------5--|--6--5--6--5--6--5--3----|
--------------------------|--------------------3----|

80
  this end part is hard to hear.                                           
  Q       Q    E  E  E  E     H        Q      Q     
---------------------------|-----------------------|
---------------------------|-----------------------|
---------------------------|-----------------------|
---------------------------|--8--------8s----12----|
--5-------3----5--5--3--3--|--6--------6s----10----|
--5-------3----5--5--3--3--|-----------------------|

82
   H         Q    Q        H         Q     Q         H         Q.      E   
-----------------------|------------------------|-------------------------|
-----------------------|------------------------|-------------------------|
-----------------------|------------------------|--/14--------14----------|
--12--------12----8----|--15--------15----12----|--/12--------12------10--|
--10--------10----6----|--13--------13----10----|----------------------8--|
-----------------------|------------------------|-------------------------|

85
   E   E  Q     Q.      E      E   E  Q     Q.     E   
---------------------------|--------------------------|
---------------------------|--------------------------|
---------------------------|--------------------------|
--12--12--8----10------10--|--12--12--8----10------7--|
--10--10--6-----8-------8--|--10--10--6-----8------5--|
---------------------------|--------------------------|

87                                                 VERSE
  E  E  E  E  E  E  Q       Q    Q    E  E  E  E     Q    Q     Q     Q     
-------------------------|------------------------|------------------------|
-------------------------|------------------------|------------------------|
-------------------------|------------------------|------------------------|
--8--7--8--7--8--7-------|------------------------|------10s---12----12----|
--6--5--6--5--6--5--3----|--5----3----5--5--3--3--|------------------------|
--------------------3----|--5----3----5--5--3--3--|-0----------------------|

90
   Q      Q     Q      Q       Q     Q      Q     Q     
----------------------------|--------------------------|
----------------------------|--------------------------|
----------------------------|--------------------------|
--13p----12----13p----12----|-------10s----12----12----|
----------------------------|--------------------------|
----------------------------|--0-----------------------|

92
   Q      Q     H           Q     Q      Q     Q     
-------------------------|--------------------------|
-------------------------|--------------------------|
-------------------------|--------------------------|
--13p----12----10--------|-------10s----12----12----|
-------------------------|--------------------------|
-------------------------|--0-----------------------|

94
   Q      Q     Q      Q       Q     Q      Q     Q     
----------------------------|--------------------------|
----------------------------|--------------------------|
----------------------------|--------------------------|
--13p----12----13p----12----|-------10s----12----12----|
----------------------------|--------------------------|
----------------------------|--0-----------------------|

96
   Q      Q     H           Q     Q      Q     Q     
-------------------------|--------------------------|
-------------------------|--------------------------|
-------------------------|--------------------------|
--13p----12----10--------|-------10s----12----12----|
-------------------------|--------------------------|
-------------------------|--0-----------------------|

98
   Q      Q     Q      Q       Q     Q      Q     Q     
----------------------------|--------------------------|
----------------------------|--------------------------|
----------------------------|--------------------------|
--13p----12----13p----12----|-------10s----12----12----|
----------------------------|--------------------------|
----------------------------|--0-----------------------|

100
   Q      Q     H           Q     Q      Q     Q     
-------------------------|--------------------------|
-------------------------|--------------------------|
-------------------------|--------------------------|
--13p----12----10--------|-------10s----12----12----|
-------------------------|--------------------------|
-------------------------|--0-----------------------|

102
   Q      Q     Q      Q       Q     Q      Q     Q     
----------------------------|--------------------------|
----------------------------|--------------------------|
----------------------------|--------------------------|
--13p----12----13p----12----|-------10s----12----12----|
----------------------------|--------------------------|
----------------------------|--0-----------------------|

                          HEAVY
104                                  PM PM PM PM PM PM  
   Q      Q     H            E    E  E  E  E  E  E  E   
-------------------------|-----------------------------|
-------------------------|-----------------------------|
-------------------------|-----------------------------|
--13p----12----10--------|-----------------------------|
-------------------------|-----------------------------|
-------------------------|--12s--13--0--0--0--0--0--0--|


106        PM PM PM PM PM PM             PM PM PM PM PM PM  
   E    E  E  E  E  E  E  E      E    E  E  E  E  E  E  E   
-----------------------------|-----------------------------|
-----------------------------|-----------------------------|
-----------------------------|-----------------------------|
-----------------------------|-----------------------------|
-----------------------------|-----------------------------|
--12s--13--0--0--0--0--0--0--|--12s--13--0--0--0--0--0--0--|

108
  PM PM PM PM PM PM PM PM PM             PM PM PM PM PM PM  
  E  E  E  S  S  E  E  E  E      E    E  E  E  E  E  E  E   
-----------------------------|-----------------------------|
-----------------------------|-----------------------------|
-----------------------------|-----------------------------|
-----------------------------|-----------------------------|
-----------------------------|-----------------------------|
--0--0--0--0--0--0--0--0--0--|--12s--13--0--0--0--0--0--0--|


110        PM PM PM PM PM PM             PM PM PM PM PM PM  
   E    E  E  E  E  E  E  E      E    E  E  E  E  E  E  E   
-----------------------------|-----------------------------|
-----------------------------|-----------------------------|
-----------------------------|-----------------------------|
-----------------------------|-----------------------------|
-----------------------------|-----------------------------|
--12s--13--0--0--0--0--0--0--|--12s--13--0--0--0--0--0--0--|

112                           CHORUS
 PM PM PM PM PM PM PM PM PM                                                  
  E  E  E  S  S  E  E  E  E     H        Q     Q        H        Q     Q     
-----------------------------|----------------------|-----------------------|
-----------------------------|----------------------|-----------------------|
-----------------------------|----------------------|-----------------------|
-----------------------------|--8--------8s---12----|--12--------12----8----|
-----------------------------|--6--------6s---10----|--10--------10----6----|
--0--0--0--0--0--0--0--0--0--|----------------------|-----------------------|

115
   H         Q     Q         H         Q.      E      E   E  Q     Q.    E   
------------------------|-------------------------|-------------------------|
------------------------|-------------------------|-------------------------|
------------------------|--/14--------14----------|-------------------------|
--15--------15----12----|--/12--------12------10--|--12--12--8----10-----10-|
--13--------13----10----|----------------------8--|--10--10--6-----8------8-|
------------------------|-------------------------|-------------------------|

118
   E   E  Q     Q.     E     E  E  E  E  E  E  Q       Q    Q    Q    Q     
--------------------------|-------------------------|----------------------|
--------------------------|-------------------------|----------------------|
--------------------------|-------------------------|----------------------|
--12--12--8----10------7--|--8--7--8--7--8--7-------|----------------------|
--10--10--6-----8------5--|--6--5--6--5--6--5--3----|--5----3----5----3----|
--------------------------|--------------------3----|--5----3----5----3----|

121
  H        Q      Q        H         Q    Q        H         Q     Q     
-----------------------|-----------------------|------------------------|
-----------------------|-----------------------|------------------------|
-----------------------|-----------------------|------------------------|
--8--------8s----12----|--12--------12----8----|--15--------15----12----|
--6--------6s----10----|--10--------10----6----|--13--------13----10----|
-----------------------|-----------------------|------------------------|

124
    H         Q.      E      E   E  Q     Q.      E   
-------------------------|---------------------------|
-------------------------|---------------------------|
--/14--------14----------|---------------------------|
--/12--------12------10--|--12--12--8----10------10--|
----------------------8--|--10--10--6-----8-------8--|
-------------------------|---------------------------|

126
   E   E  Q     Q.     E     E  E  E  E  E  E  Q       Q    Q    H         
--------------------------|-------------------------|---------------------|
--------------------------|-------------------------|---------------------|
--------------------------|-------------------------|---------------------|
--12--12--8----10------7--|--8--7--8--7--8--7-------|---------------------|
--10--10--6-----8------5--|--6--5--6--5--6--5--3----|--5----3----5--------|
--------------------------|--------------------3----|--5----3----0--------|

INTERLUDE
129
   Q     E   E.   E.      Q     E   E.   E.      E.   E.   E.   S   E   
----------------------|----------------------|-------------------------|
--15----15--15---13---|--15----15--15---13---|--18---18---17---18s-17--|
----------------------|----------------------|-------------------------|
----------------------|----------------------|-------------------------|
----------------------|----------------------|-------------------------|
----------------------|----------------------|-------------------------|

132
   Q     E   E.    E.      Q     E   E.   E.      Q     E   E.   E.   
-----------------------|----------------------|----------------------|
--15----15--15---------|--15----15--15---13---|--15----15--15---13---|
-----------------\14---|----------------------|----------------------|
-----------------------|----------------------|----------------------|
-----------------------|----------------------|----------------------|
-----------------------|----------------------|----------------------|

135
   E.   E.   E.   S   E      Q     E   E.    E.      Q     E   E.   E.   
-------------------------|-----------------------|----------------------|
--18---18---17---18s-17--|--15----15--15---------|--15----15--15---13---|
-------------------------|-----------------\14---|----------------------|
-------------------------|-----------------------|----------------------|
-------------------------|-----------------------|----------------------|
-------------------------|-----------------------|----------------------|

138
   Q     E   E.   E.      E.   E.   E.   S   E      Q     E   E.    E.   
----------------------|-------------------------|-----------------------|
--15----15--15---13---|--18---18---17---18s-17--|--15----15--15---------|
----------------------|-------------------------|-----------------\14---|
----------------------|-------------------------|-----------------------|
----------------------|-------------------------|-----------------------|
----------------------|-------------------------|-----------------------|

141
   Q     E   E.   E.      Q     E   E.   E.      E.   E.   E.   S   E   
----------------------|----------------------|-------------------------|
--15----15--15---13---|--15----15--15---13---|--18---18---17---18s-17--|
----------------------|----------------------|-------------------------|
----------------------|----------------------|-------------------------|
----------------------|----------------------|-------------------------|
----------------------|----------------------|-------------------------|

                        RIFF
144                       PM   PM                    
   Q     E   E.    E.     Q    Q     E    E   Q      
-----------------------|----------------------------|
--15----15--15---------|----------------------------|
-----------------\14---|----------------------------|
-----------------------|------------10h--12--12~----|
-----------------------|--0----0--------------------|
-----------------------|--0----0--------------------|

146
  PM   PM PM                    PM PM PM                        
  Q    E  E   E    E   Q        E  E  Q     S   S   E   E   E   
-----------------------------|---------------------------------|
-----------------------------|---------------------------------|
-----------------------------|-------------10h-11p-10--10------|
-------------12h--13--13~----|-----------------------------13--|
--0----0--0------------------|--0--0--0------------------------|
--0----0--0------------------|--0--0--0------------------------|


148                                 PM   PM                    
   E   E   E   E   E   E   Q        Q    Q     E    E   Q      
---------------------------------|----------------------------|
---------------------------------|----------------------------|
--10-----------------------------|----------------------------|
------13--12--10--12--13--12\----|------------10h--12--12~----|
---------------------------------|--0----0--------------------|
---------------------------------|--0----0--------------------|

150
  PM   PM                      PM   PM                        
  Q    Q     E    E   Q        Q    Q     S   S   E   E   E   
----------------------------|--------------------------------|
----------------------------|--------------------------------|
----------------------------|------------10h-11p-10--10------|
------------12h--13--13~----|----------------------------13--|
--0----0--------------------|--0----0------------------------|
--0----0--------------------|--0----0------------------------|


152                                 PM   PM                   
   E   E   E   E   E   E   Q        Q    Q     E   E   Q      
---------------------------------|---------------------------|
---------------------------------|------------13--15--15~----|
--10-----------------------------|---------------------------|
------13--12--10--12--13--12\----|---------------------------|
---------------------------------|--0----0-------------------|
---------------------------------|--0----0-------------------|

154
  PM   PM                     PM   PM                        
  Q    Q     E   E   Q        Q    Q     S   S   E   E   E   
---------------------------|------------13h-14p-13--13------|
------------15--16--16~----|----------------------------16--|
---------------------------|--------------------------------|
---------------------------|--------------------------------|
--0----0-------------------|--0----0------------------------|
--0----0-------------------|--0----0------------------------|


156                                 PM   PM                    
   E   E   E   E   E   E   Q        Q    Q     E    E   Q      
--13-----------------------------|----------------------------|
------16--15--13--15--16--15\----|----------------------------|
---------------------------------|----------------------------|
---------------------------------|------------10h--12--12~----|
---------------------------------|--0----0--------------------|
---------------------------------|--0----0--------------------|

158
  PM   PM PM                    PM PM PM                
  Q    E  E   E    E   Q        E  E  Q     Q     Q     
-----------------------------|-------------------------|
-----------------------------|-------------------------|
-----------------------------|-------------14----14----|
-------------12h--13--13~----|-------------12----12----|
--0----0--0------------------|--0--0--0----12----12----|
--0----0--0------------------|--0--0--0----------------|


                              HEAVY
160                                     PM PM PM PM PM PM  
   Q     Q     Q      E  E      E    E  E  E  E  E  E  E   
----------------------------|-----------------------------|
----------------------------|-----------------------------|
--14----14----14br----L-----|-----------------------------|
--12----12----12br----L-----|-----------------------------|
--12----12----12br----L-----|-----------------------------|
----------------------------|--12s--13--0--0--0--0--0--0--|


162     PM PM PM PM PM PM          PM PM PM PM PM PM  
   Q    E  E  E  E  E  E      Q    E  E  E  E  E  E   
--------------------------|--------------------------|
--------------------------|--------------------------|
--------------------------|--------------------------|
--------------------------|--------------------------|
--------------------------|--------------------------|
--13----0--0--0--0--0--0--|--13----0--0--0--0--0--0--|

164
  PM PM PM PM PM PM PM PM PM             PM PM PM PM PM PM  
  E  E  E  S  S  E  E  E  E      E    E  E  E  E  E  E  E   
-----------------------------|-----------------------------|
-----------------------------|-----------------------------|
-----------------------------|-----------------------------|
-----------------------------|-----------------------------|
-----------------------------|-----------------------------|
--0--0--0--0--0--0--0--0--0--|--12s--13--0--0--0--0--0--0--|


166     PM PM PM PM PM PM          PM PM PM PM PM PM  
   Q    E  E  E  E  E  E      Q    E  E  E  E  E  E   
--------------------------|--------------------------|
--------------------------|--------------------------|
--------------------------|--------------------------|
--------------------------|--------------------------|
--------------------------|--------------------------|
--13----0--0--0--0--0--0--|--13----0--0--0--0--0--0--|

168                           VERSE
  PM PM PM PM PM PM PM PM PM                             
  E  E  E  S  S  E  E  E  E     Q     Q      Q     Q     
-----------------------------|--------------------------|
-----------------------------|--------------------------|
-----------------------------|--------------------------|
-----------------------------|-------10s----12----12----|
-----------------------------|--------------------------|
--0--0--0--0--0--0--0--0--0--|--0-----------------------|

170
   Q      Q     Q      Q       Q     Q      Q     Q     
----------------------------|--------------------------|
----------------------------|--------------------------|
----------------------------|--------------------------|
--13p----12----13p----12----|-------10s----12----12----|
----------------------------|--------------------------|
----------------------------|--0-----------------------|

172
   Q      Q     H           Q     Q      Q     Q     
-------------------------|--------------------------|
-------------------------|--------------------------|
-------------------------|--------------------------|
--13p----12----10--------|-------10s----12----12----|
-------------------------|--------------------------|
-------------------------|--0-----------------------|

174
   Q      Q     Q      Q       Q     Q      Q     Q     
----------------------------|--------------------------|
----------------------------|--------------------------|
----------------------------|--------------------------|
--13p----12----13p----12----|-------10s----12----12----|
----------------------------|--------------------------|
----------------------------|--0-----------------------|

176
   Q      Q     H           Q     Q      Q     Q     
-------------------------|--------------------------|
-------------------------|--------------------------|
-------------------------|--------------------------|
--13p----12----10--------|-------10s----12----12----|
-------------------------|--------------------------|
-------------------------|--0-----------------------|

178
   Q      Q     Q      Q       Q     Q      Q     Q     
----------------------------|--------------------------|
----------------------------|--------------------------|
----------------------------|--------------------------|
--13p----12----13p----12----|-------10s----12----12----|
----------------------------|--------------------------|
----------------------------|--0-----------------------|

180
   Q      Q     H           Q     Q      Q     Q     
-------------------------|--------------------------|
-------------------------|--------------------------|
-------------------------|--------------------------|
--13p----12----10--------|-------10s----12----12----|
-------------------------|--------------------------|
-------------------------|--0-----------------------|

182
   Q      Q     Q      Q       Q     Q      Q     Q     
----------------------------|--------------------------|
----------------------------|--------------------------|
----------------------------|--------------------------|
--13p----12----13p----12----|-------10s----12----12----|
----------------------------|--------------------------|
----------------------------|--0-----------------------|


                          HEAVY RIFF
184                                              PM PM PM PM PM PM PM PM  
   Q      Q     H           H        H           E  E  E  E  E  E  E  E   
-------------------------|--------------------|--------------------------|
-------------------------|--------------------|--------------------------|
-------------------------|--------------------|--------------------------|
--13p----12----10--------|--------------------|--------------------------|
-------------------------|--5--------5--------|--5--3--0--3--5--3--6--3--|
-------------------------|--0--------0--------|--0--0--0--0--0--0--0--0--|

187
  H        H           E  E  E  E  E  E  E  E     H        H         
--------------------|--------------------------|--------------------|
--------------------|--------------------------|--------------------|
--------------------|--7--7--7--7--7--7--7--7--|--------------------|
--------------------|--7--7--7--7--7--7--7--7--|--------------------|
--5--------5--------|--5--5--5--5--5--5--5--5--|--5--------5--------|
--0--------0--------|--------------------------|--0--------0--------|

190
  PM PM PM PM PM PM PM PM                                                  
  E  E  E  E  E  E  E  E     H        H           E  E  E  E  E  E  E  E   
--------------------------|--------------------|--------------------------|
--------------------------|--------------------|--------------------------|
--------------------------|--------------------|--7--7--7--7--7--7--7--7--|
--------------------------|--------------------|--7--7--7--7--7--7--7--7--|
--5--3--0--3--5--3--6--3--|--5--------5--------|--5--5--5--5--5--5--5--5--|
--0--0--0--0--0--0--0--0--|--0--------0--------|--------------------------|


193                    PM PM PM PM PM PM PM PM                       
  H        H           E  E  E  E  E  E  E  E     H        H         
--------------------|--------------------------|--------------------|
--------------------|--------------------------|--------------------|
--------------------|--------------------------|--------------------|
--------------------|--------------------------|--------------------|
--5--------5--------|--5--3--0--3--5--3--6--3--|--5--------5--------|
--0--------0--------|--0--0--0--0--0--0--0--0--|--0--------0--------|


196                                               PM PM PM PM PM PM PM PM  
  E  E  E  E  E  E  E  E     H        H           E  E  E  E  E  E  E  E   
--------------------------|--------------------|--------------------------|
--------------------------|--------------------|--------------------------|
--7--7--7--7--7--7--7--7--|--------------------|--------------------------|
--7--7--7--7--7--7--7--7--|--------------------|--------------------------|
--5--5--5--5--5--5--5--5--|--5--------5--------|--5--3--0--3--5--3--6--3--|
--------------------------|--0--------0--------|--0--0--0--0--0--0--0--0--|

199                                             OUT
  H        H           E  E  E  E  E  E  E  E     H        H         
--------------------|--------------------------|--------------------|
--------------------|--------------------------|--------------------|
--------------------|--7--7--7--7--7--7--7--7--|--------------------|
--------------------|--7--7--7--7--7--7--7--7--|--------------------|
--5--------5--------|--5--5--5--5--5--5--5--5--|--5--------5--------|
--0--------0--------|--------------------------|--0--------0--------|

202
  W                   W                   W                   W              
-------------------|-------------------|-------------------|----------------|
-------------------|-------------------|-------------------|----------------|
-------------------|-------------------|-------------------|----------------|
-------------------|-------------------|-------------------|----------------|
--L----------------|--L----------------|--L----------------|--L-------------|
--L----------------|--L----------------|--L----------------|--L-------------|


  W                   W                   W                  
-------------------|-------------------|-------------------||
-------------------|-------------------|-------------------||
-------------------|-------------------|-------------------||
-------------------|-------------------|-------------------||
--L----------------|--L----------------|--L----------------||
--L----------------|--L----------------|--L----------------||


~~~~~~~~~~~~~~~~~~~~~~~~~~~~~~~~~~~~~~~~~~~~~~~~~~~~~~~~~~~~~~~~~~~~~~~~~~~~~
~~~~~~~~~~~~~~~~~~~~~~~~~~~~~~~~~~~~~~~~~~~~~~~~~~~~~~~~~~~~~~~~~~~~~~~~~~~~~

GUITAR 2

21  PM                                                        
    W                   W                                     
A|-------------------|-------------------|-------------------|
E|-------------------|-------------------|-------------------|
C|-------------------|-------------------|-------------------|
G|-------------------|-------------------|-------------------|
D|-------------------|-------------------|-------------------|
G|--0----------------|--L----------------|-------------------|


                    VERSE
24                    PM                                                    
                      W                   W                                 
-------------------|-------------------|-------------------|-------|-------|
-------------------|-------------------|-------------------|-------|-------|
-------------------|-------------------|-------------------|-------|-------|
-------------------|-------------------|-------------------|-------|-------|
-------------------|-------------------|-------------------|-------|-------|
-------------------|--0----------------|--L----------------|-------|-------|

29
  PM                                                      PM                
  W                   W                                   W                 
-------------------|-------------------|-------|-------|-------------------|
-------------------|-------------------|-------|-------|-------------------|
-------------------|-------------------|-------|-------|-------------------|
-------------------|-------------------|-------|-------|-------------------|
-------------------|-------------------|-------|-------|-------------------|
--0----------------|--L----------------|-------|-------|--0----------------|


34                                      PM                                    
  W                                   W                   W                 
-------------------|-------|-------|-------------------|-------------------|
-------------------|-------|-------|-------------------|-------------------|
-------------------|-------|-------|-------------------|-------------------|
-------------------|-------|-------|-------------------|-------------------|
-------------------|-------|-------|-------------------|-------------------|
--L----------------|-------|-------|--0----------------|--L----------------|


39                PM                                                    
                  W                   W                                 
-------|-------|-------------------|-------------------|-------|-------|
-------|-------|-------------------|-------------------|-------|-------|
-------|-------|-------------------|-------------------|-------|-------|
-------|-------|-------------------|-------------------|-------|-------|
-------|-------|-------------------|-------------------|-------|-------|
-------|-------|--0----------------|--L----------------|-------|-------|

45
  PM                                                    
  W                   W                                 
-------------------|-------------------|-------|-------|
-------------------|-------------------|-------|-------|
-------------------|-------------------|-------|-------|
-------------------|-------------------|-------|-------|
-------------------|-------------------|-------|-------|
--0----------------|--L----------------|-------|-------|


SWEET RIFF
49
  PM   PM                      PM   PM PM                  
  Q    Q     E    E   Q        Q    E  E   E    E   Q      
----------------------------|-----------------------------|
----------------------------|-----------------------------|
------------12h--14--14~----|-------------14h--15--15~----|
----------------------------|-----------------------------|
--0----0--------------------|--0----0--0------------------|
--0----0--------------------|--0----0--0------------------|

51
  PM PM PM                                                          
  E  E  Q     S   S   E   E   E      E   E   E   E   E   E   Q      
---------------------------------|---------------------------------|
-------------13h-14p-13--13------|--13-----------------------------|
-----------------------------15--|------15--14--12--14--15--14\----|
---------------------------------|---------------------------------|
--0--0--0------------------------|---------------------------------|
--0--0--0------------------------|---------------------------------|

53
  PM   PM                     PM   PM                   
  Q    Q     E   E   Q        Q    Q     E   E   Q      
---------------------------|---------------------------|
------------13--15--15~----|------------15--16--16~----|
---------------------------|---------------------------|
---------------------------|---------------------------|
--0----0-------------------|--0----0-------------------|
--0----0-------------------|--0----0-------------------|

55
  PM   PM                                                          
  Q    Q     S   S   E   E   E      E   E   E   E   E   E   Q      
------------13h-14p-13--13------|--13-----------------------------|
----------------------------16--|------16--15--13--15--16--15\----|
--------------------------------|---------------------------------|
--------------------------------|---------------------------------|
--0----0------------------------|---------------------------------|
--0----0------------------------|---------------------------------|

57
  PM   PM                     PM   PM                   
  Q    Q     E   E   Q        Q    Q     E   E   Q      
---------------------------|---------------------------|
------------13--15--15~----|------------15--16--16~----|
---------------------------|---------------------------|
---------------------------|---------------------------|
--0----0-------------------|--0----0-------------------|
--0----0-------------------|--0----0-------------------|

59
  PM   PM                                                          
  Q    Q     S   S   E   E   E      E   E   E   E   E   E   Q      
------------13h-14p-13--13------|--13-----------------------------|
----------------------------16--|------16--15--13--15--16--15\----|
--------------------------------|---------------------------------|
--------------------------------|---------------------------------|
--0----0------------------------|---------------------------------|
--0----0------------------------|---------------------------------|

61
  PM   PM                      PM   PM PM                  
  Q    Q     E    E   Q        Q    E  E   E    E   Q      
----------------------------|-----------------------------|
----------------------------|-----------------------------|
------------12h--14--14~----|-------------14h--15--15~----|
----------------------------|-----------------------------|
--0----0--------------------|--0----0--0------------------|
--0----0--------------------|--0----0--0------------------|

63
  PM PM PM                                             
  E  E  Q     Q     Q        Q     Q     Q      E  E   
-------------------------|----------------------------|
-------------------------|----------------------------|
-------------14----14----|--14----14----14br----L-----|
-------------12----12----|--12----12----12br----L-----|
--0--0--0----12----12----|--12----12----12br----L-----|
--0--0--0----------------|----------------------------|


HEAVY
65
       PM PM PM PM PM PM         PM PM PM PM PM PM        PM PM PM PM PM PM  
  Q    E  E  E  E  E  E     Q    E  E  E  E  E  E     Q    E  E  E  E  E  E  
-------------------------|-------------------------|------------------------|
-------------------------|-------------------------|------------------------|
-------------------------|-------------------------|------------------------|
-------------------------|-------------------------|------------------------|
-------------------------|-------------------------|------------------------|
--1----0--0--0--0--0--0--|--1----0--0--0--0--0--0--|--1----0--0--0--0--0--0-|

68
  PM PM PM PM PM PM PM PM PM         PM PM PM PM PM PM  
  E  E  E  S  S  E  E  E  E     Q    E  E  E  E  E  E   
-----------------------------|-------------------------|
-----------------------------|-------------------------|
-----------------------------|-------------------------|
-----------------------------|-------------------------|
-----------------------------|-------------------------|
--0--0--0--0--0--0--0--0--0--|--1----0--0--0--0--0--0--|

70
       PM PM PM PM PM PM         PM PM PM PM PM PM  
  Q    E  E  E  E  E  E     Q    E  E  E  E  E  E   
-------------------------|-------------------------|
-------------------------|-------------------------|
-------------------------|-------------------------|
-------------------------|-------------------------|
-------------------------|-------------------------|
--1----0--0--0--0--0--0--|--1----0--0--0--0--0--0--|

72                            CHORUS
 PM PM PM PM PM PM PM PM PM                                                  
  E  E  E  S  S  E  E  E  E     H        Q      Q        H         Q    Q    
-----------------------------|-----------------------|----------------------|
-----------------------------|-----------------------|----------------------|
-----------------------------|-----------------------|----------------------|
-----------------------------|--8--------8s----12----|--12--------12----8---|
-----------------------------|--6--------6s----10----|--10--------10----6---|
--0--0--0--0--0--0--0--0--0--|-----------------------|----------------------|

75
   H         Q     Q         H         Q.      E      E   E  Q     Q.    E   
------------------------|-------------------------|-------------------------|
------------------------|-------------------------|-------------------------|
------------------------|--/14--------14----------|-------------------------|
--15--------15----12----|--/12--------12------10--|--12--12--8----10-----10-|
--13--------13----10----|----------------------8--|--10--10--6-----8------8-|
------------------------|-------------------------|-------------------------|

78
   E   E  Q     Q.     E     E  E  E  E  E  E  Q       Q    Q    E  E  E  E  
--------------------------|-------------------------|-----------------------|
--------------------------|-------------------------|-----------------------|
--------------------------|-------------------------|-----------------------|
--12--12--8----10------7--|--8--7--8--7--8--7-------|-----------------------|
--10--10--6-----8------5--|--6--5--6--5--6--5--3----|--5----3----5--5--3--3-|
--------------------------|--------------------3----|--5----3----5--5--3--3-|

81
  H        Q      Q        H         Q    Q        H         Q     Q     
-----------------------|-----------------------|------------------------|
-----------------------|-----------------------|------------------------|
-----------------------|-----------------------|------------------------|
--8--------8s----12----|--12--------12----8----|--15--------15----12----|
--6--------6s----10----|--10--------10----6----|--13--------13----10----|
-----------------------|-----------------------|------------------------|

84
    H         Q.      E      E   E  Q     Q.      E   
-------------------------|---------------------------|
-------------------------|---------------------------|
--/14--------14----------|---------------------------|
--/12--------12------10--|--12--12--8----10------10--|
----------------------8--|--10--10--6-----8-------8--|
-------------------------|---------------------------|

86
   E   E  Q     Q.     E     E  E  E  E  E  E  Q       Q    Q    E  E  E  E  
--------------------------|-------------------------|-----------------------|
--------------------------|-------------------------|-----------------------|
--------------------------|-------------------------|-----------------------|
--12--12--8----10------7--|--8--7--8--7--8--7-------|-----------------------|
--10--10--6-----8------5--|--6--5--6--5--6--5--3----|--5----3----5--5--3--3-|
--------------------------|--------------------3----|--5----3----5--5--3--3-|


VERSE
89
  Q     Q      Q     Q        Q      Q     Q      Q     
--------------------------|----------------------------|
--------------------------|----------------------------|
--------------------------|----------------------------|
--------------------------|----------------------------|
--------------------------|----------------------------|
--0----10s----12----12----|--13p----12----13p----12----|

91
  Q     Q      Q     Q        Q      Q     H           Q    Q    Q    Q  
--------------------------|-------------------------|-----------------------|
--------------------------|-------------------------|-----------------------|
--------------------------|-------------------------|-----------------------|
--------------------------|-------------------------|-----------------------|
--------------------------|-------------------------|-----------------------|
--0----10s----12----12----|--13p----12----10--------|--0---10s---12---12----|

94
   Q      Q     Q      Q       Q     Q      Q     Q     
----------------------------|--------------------------|
----------------------------|--------------------------|
----------------------------|--------------------------|
----------------------------|--------------------------|
----------------------------|--------------------------|
--13p----12----13p----12----|--0----10s----12----12----|

96
   Q      Q     H           Q     Q      Q     Q     
-------------------------|--------------------------|
-------------------------|--------------------------|
-------------------------|--------------------------|
-------------------------|--------------------------|
-------------------------|--------------------------|
--13p----12----10--------|--0----10s----12----12----|

98
   Q      Q     Q      Q       Q     Q      Q     Q     
----------------------------|--------------------------|
----------------------------|--------------------------|
----------------------------|--------------------------|
----------------------------|--------------------------|
----------------------------|--------------------------|
--13p----12----13p----12----|--0----10s----12----12----|

100
   Q      Q     H           Q     Q      Q     Q     
-------------------------|--------------------------|
-------------------------|--------------------------|
-------------------------|--------------------------|
-------------------------|--------------------------|
-------------------------|--------------------------|
--13p----12----10--------|--0----10s----12----12----|

102
   Q      Q     Q      Q       Q     Q      Q     Q     
----------------------------|--------------------------|
----------------------------|--------------------------|
----------------------------|--------------------------|
----------------------------|--------------------------|
----------------------------|--------------------------|
--13p----12----13p----12----|--0----10s----12----12----|


                          HEAVY
104                              PM PM PM PM PM PM         PM PM PM PM PM PM 
   Q      Q     H           Q    E  E  E  E  E  E     Q    E  E  E  E  E  E  
-------------------------|-------------------------|------------------------|
-------------------------|-------------------------|------------------------|
-------------------------|-------------------------|------------------------|
-------------------------|-------------------------|------------------------|
-------------------------|-------------------------|------------------------|
--13p----12----10--------|--1----0--0--0--0--0--0--|--1----0--0--0--0--0--0-|


107    PM PM PM PM PM PM    PM PM PM PM PM PM PM PM PM  
  Q    E  E  E  E  E  E     E  E  E  S  S  E  E  E  E   
-------------------------|-----------------------------|
-------------------------|-----------------------------|
-------------------------|-----------------------------|
-------------------------|-----------------------------|
-------------------------|-----------------------------|
--1----0--0--0--0--0--0--|--0--0--0--0--0--0--0--0--0--|


109    PM PM PM PM PM PM         PM PM PM PM PM PM         PM PM PM PM PM PM 
  Q    E  E  E  E  E  E     Q    E  E  E  E  E  E     Q    E  E  E  E  E  E  
-------------------------|-------------------------|------------------------|
-------------------------|-------------------------|------------------------|
-------------------------|-------------------------|------------------------|
-------------------------|-------------------------|------------------------|
-------------------------|-------------------------|------------------------|
--1----0--0--0--0--0--0--|--1----0--0--0--0--0--0--|--1----0--0--0--0--0--0-|


112                            CHORUS
  PM PM PM PM PM PM PM PM PM                                                 
  E  E  E  S  S  E  E  E  E     H        Q      Q        H         Q    Q    
-----------------------------|-----------------------|----------------------|
-----------------------------|-----------------------|----------------------|
-----------------------------|-----------------------|----------------------|
-----------------------------|--8--------8s----12----|--12--------12----8---|
-----------------------------|--6--------6s----10----|--10--------10----6---|
--0--0--0--0--0--0--0--0--0--|-----------------------|----------------------|

115
   H         Q     Q         H         Q.      E      E   E  Q     Q.     E 
------------------------|-------------------------|-------------------------|
------------------------|-------------------------|-------------------------|
------------------------|--/14--------14----------|-------------------------|
--15--------15----12----|--/12--------12------10--|--12--12--8----10-----10-|
--13--------13----10----|----------------------8--|--10--10--6-----8------8-|
------------------------|-------------------------|-------------------------|

118
   E   E  Q     Q.     E     E  E  E  E  E  E  Q       Q    Q    Q    Q     
--------------------------|-------------------------|----------------------|
--------------------------|-------------------------|----------------------|
--------------------------|-------------------------|----------------------|
--12--12--8----10------7--|--8--7--8--7--8--7-------|----------------------|
--10--10--6-----8------5--|--6--5--6--5--6--5--3----|--5----3----5----3----|
--------------------------|--------------------3----|--5----3----5----3----|

121
  H        Q      Q        H         Q    Q        H         Q     Q     
-----------------------|-----------------------|------------------------|
-----------------------|-----------------------|------------------------|
-----------------------|-----------------------|------------------------|
--8--------8s----12----|--12--------12----8----|--15--------15----12----|
--6--------6s----10----|--10--------10----6----|--13--------13----10----|
-----------------------|-----------------------|------------------------|

124
    H         Q.      E      E   E  Q     Q.      E   
-------------------------|---------------------------|
-------------------------|---------------------------|
--/14--------14----------|---------------------------|
--/12--------12------10--|--12--12--8----10------10--|
----------------------8--|--10--10--6-----8-------8--|
-------------------------|---------------------------|

126
   E   E  Q     Q.     E     E  E  E  E  E  E  Q       Q    Q    H         
--------------------------|-------------------------|---------------------|
--------------------------|-------------------------|---------------------|
--------------------------|-------------------------|---------------------|
--12--12--8----10------7--|--8--7--8--7--8--7-------|---------------------|
--10--10--6-----8------5--|--6--5--6--5--6--5--3----|--5----3----5--------|
--------------------------|--------------------3----|--5----3----0--------|


INTERLUDE
129
   Q     E   E.   E.      Q     E   E.   E.      E.   E.   E.   S   E   
----------------------|----------------------|-------------------------|
----------------------|----------------------|-------------------------|
----------------------|----------------------|-------------------------|
--12----12--12---10---|--12----12--12---10---|--15---15---14---15s-14--|
----------------------|----------------------|-------------------------|
----------------------|----------------------|-------------------------|

132
   Q     E   E.    E.      Q     E   E.   E.      Q     E   E.   E.   
-----------------------|----------------------|----------------------|
-----------------------|----------------------|----------------------|
-----------------------|--------14--14---12---|--14----14--14---12---|
--12----12--12---------|--12----12--12---10---|--12----12--12---10---|
-----------------\12---|----------------------|----------------------|
-----------------------|----------------------|----------------------|

135
   E.   E.   E.   S   E      Q     E   E.    E.      Q     E   E.   E.   
-------------------------|-----------------------|----------------------|
-------------------------|-----------------------|----------------------|
-------------------------|-----------------------|--------14--14---12---|
--15---15---14---15s-14--|--12----12--12---------|--12----12--12---10---|
-------------------------|-----------------\12---|----------------------|
-------------------------|-----------------------|----------------------|

138
   Q     E   E.   E.      E.   E.   E.   S   E      Q     E   E.    E.   
----------------------|-------------------------|-----------------------|
----------------------|-------------------------|-----------------------|
--14----14--14---12---|-------------------------|-----------------------|
--12----12--12---10---|--15---15---14---15s-14--|--12----12--12---------|
----------------------|-------------------------|-----------------\12---|
----------------------|-------------------------|-----------------------|

141
  Q     E   E.   E.      Q     E   E.   E.      E.   E.   E.   S   E   
----------------------|----------------------|-------------------------|
----------------------|----------------------|-------------------------|
--------14--14---12---|--14----14--14---12---|-------------------------|
--12----12--12---10---|--12----12--12---10---|--15---15---14---15s-14--|
----------------------|----------------------|-------------------------|
----------------------|----------------------|-------------------------|


                        RIFF
144                       PM   PM                    
   Q     E   E.    E.     Q    Q     E    E   Q      
-----------------------|----------------------------|
-----------------------|----------------------------|
-----------------------|------------12h--14--14~----|
--12----12--12---------|----------------------------|
-----------------\12---|--0----0--------------------|
-----------------------|--0----0--------------------|

146
  PM   PM PM                    PM PM PM                        
  Q    E  E   E    E   Q        E  E  Q     S   S   E   E   E   
-----------------------------|---------------------------------|
-----------------------------|-------------13h-14p-13--13---
Добавлено: 19.03.2012
Другие материалы по этой песне:

Страница создана 01.03.2012
http://primanota.ru/kylesa/running-red-chords.htm
Привет, Гость.
Предлагаем пройти революционный курс по гитаре.
Подарок от PrimaNota.Ru, забирай!