PrimaNota.ru - самый крупный в мире бесплатный архив песенных текстов, аккордов, табулатур и нот


Kylesa - Natures Predators - таба, видео

Регистрация Запомнить меня
Войти через:  Facebook Google Twitter Vk Yandex Mail.ru

Kylesa - Natures Predators - таба, видео

Печатать
Просмотров: 160
Авторы музыки: Phillip Cope, Laura Pleasants, Carl McGinley
Авторы текста: Phillip Cope, Laura Pleasants
KYLESA - NATURE'S PREDATORS
From "Static Tensions" (2009)
Tabbed by Pontus Ottosson (pundan@gmail.com)


VERSE

C |--------------------------------------------------------------------------------------------|
G |--------------------------------------------------------------------------------------------|
D#|--------------------------------------------------------------------------------------------|
A#|-3---3--3--7---7--7---3---3--3---7---7--7---10---10--10---3---3--3---10---10--10---5---5--5-|
F |-3---3--3--7---7--7---3---3--3---7---7--7---10---10--10---3---3--3---10---10--10---5---5--5-|
A#|-3---3--3--7---7--7---3---3--3---7---7--7---10---10--10---3---3--3---10---10--10---5---5--5-| x2

Streets lined with blood
Sleep no longer rests
Try to tune it out
This is no love generation

This is the town I live in
It is an American tension
Nature's predators live through death
Your neighbor killed big brother

PRE-CHORUS

C |------------------------------------------------------|
G |------------------------------------------------------|
D#|------------------------------------------------------|
A#|---------------------------------------------5------7-|
F |-0h5p7-0h5p7-0h5p7-0h5p7-0-5-7-8-0-5-7-8-----3------5-|
A#|-0h5p7-0h5p7-0h5p7-0h5p7-0-5-7-8-0-5-7-8-8p0----3p0---|  x4
			    PM.............

CHORUS

C |---------------------------------------------------------------|
G |---------------------------------------------------------------|
D#|---------------------------------------------------------------|
A#|-----7---------------7---------------7-------------------------|
F |-----5---------------5---------------5-----------5---------5-3~|
A#|-3p0---0-0-0-0---3p0---0-0-0-0---3p0---0-0-0-0-----7-5-0-5-----|  x2

Dim away the world
White-washed away

PRE-CHORUS

C |------------------------------------------------------|
G |------------------------------------------------------|
D#|------------------------------------------------------|
A#|---------------------------------------------5------7-|
F |-0h5p7-0h5p7-0h5p7-0h5p7-0-5-7-8-0-5-7-8-----3------5-|
A#|-0h5p7-0h5p7-0h5p7-0h5p7-0-5-7-8-0-5-7-8-8p0----3p0---|  x4
			    PM.............

CHORUS

C |---------------------------------------------------------------|
G |---------------------------------------------------------------|
D#|---------------------------------------------------------------|
A#|-----7---------------7---------------7-------------------------|
F |-----5---------------5---------------5-----------5---------5-3~|
A#|-3p0---0-0-0-0---3p0---0-0-0-0---3p0---0-0-0-0-----7-5-0-5-----|  x2

Dim away the world
White-washed away

BRIDGE

C |-------------------------------------------------|
G |-------------------------------------------------|
D#|-------------------------------------------------|
A#|-------------------------------------------------|
F |-------------------------------------------------|
A#|-0h5p7-0h5p7-0h5p7-0h5p7-0h5p7-0h5p7-0h5p7-0h5p7-|

C |-------------------------------------------------|
G |-------------------------------------------------|
D#|-------------------------------------------------|
A#|-------------------------------------------------|
F |-------------------------------------------------|
A#|-0h7p9-0h7p9-0h7p9-0h7p9-0h7p9-0h7p9-0h7p9-0h7p9-|

C |-----------------------------------------------------------------|
G |-----------------------------------------------------------------|
D#|-----------------------------------------------------------------|
A#|-----------------------------------------------------------------|
F |-----------------------------------------------------------------|
A#|-0h10p12-0h10p12-0h10p12-0h10p12-0h10p12-0h10p12-0h10p12-0h10p12-|

C |-----------------------------------------------------------------|
G |-----------------------------------------------------------------|
D#|-----------------------------------------------------------------|
A#|-----------------0h12p14-0h10p12-----------------0h12p14-0h10p12-|
F |---------0h10p12-------------------------0h10p12-----------------|
A#|-0h10p12-------------------------0h10p12-------------------------|

C |--------------------------------------------------------|
G |--------------------------------------------------------|
D#|--------------------------------------------------------|
A#|-0h10p12-0h12p14-0h10p12-0h9p10-0h7p9-0h5p7-------0h3p5-|
F |--------------------------------------------0h5p7-------|
A#|--------------------------------------------------------|

C |-----------------------------------------------------------------|
G |-----------------------------------------------------------------|
D#|-----------------------------------------------------------------|
A#|-----------------0h12p14-0h10p12-----------------0h12p14-0h10p12-|
F |---------0h10p12-------------------------0h10p12-----------------|
A#|-0h10p12-------------------------0h10p12-------------------------|

C |--------------------------------------------------------|
G |--------------------------------------------------------|
D#|--------------------------------------------------------|
A#|-0h10p12-0h12p14-0h10p12-0h9p10-0h7p9-0h5p7-------0h3p5-|
F |--------------------------------------------0h5p7-------|
A#|--------------------------------------------------------|

C |-----------------------------------------------------|
G |-----------------------------------------------------|
D#|-----------------------------------------------------|
A#|-----------------------------------------------------|
F |-6\3p0-------3/5-----------5\3---3/6---6\3-----------|
A#|-6\3p0-0-0-0-3/5-0-0-0-0-0-5\3-0-3/6-0-6\3-0-0-0-0-0-|  x4
       PM .....     .........     .     .     ......... 

Waking symbols rest
Human interest repressed

C |-----------------------------------------------------|
G |-----------------------------------------------------|
D#|-----------------------------------------------------|
A#|-----------------------------------------------------|
F |-----------------------------------------------------|
A#|-6\3p0-0-0-0-3/5-0-0-0-0-0-5\3-0-3/6-0-6\3-0-0-0-0-0-|  x2
 PM ....................................................

C |--------------------------------------------------------|
G |--------------------------------------------------------|
D#|--------------------------------------------------------|
A#|--------------------------------------------------------|
F |-12--12h13p12\10--10~--12h13p12-10h12p10-9h10p9-7\5-5\3-|
A#|-12--12h13p12\10--10~--12h13p12-10h12p10-9h10p9-7\5-5\3-|

C |------------------------------------------------------------|
G |------------------------------------------------------------|
D#|------------------------------------------------------------|
A#|------------------------------------------------------------|
F |-12--12h13p12\10--10~--12h13p12-10h12p10-9h10p9-7\5-5\3-3\0-|
A#|-12--12h13p12\10--10~--12h13p12-10h12p10-9h10p9-7\5-5\3-3\0-|
                          Only Guitar 1

VERSE

C |--------------------------------------------------------------------------------------------|
G |--------------------------------------------------------------------------------------------|
D#|--------------------------------------------------------------------------------------------|
A#|-3---3--3--7---7--7---3---3--3---7---7--7---10---10--10---3---3--3---10---10--10---5---5--5-|
F |-3---3--3--7---7--7---3---3--3---7---7--7---10---10--10---3---3--3---10---10--10---5---5--5-|
A#|-3---3--3--7---7--7---3---3--3---7---7--7---10---10--10---3---3--3---10---10--10---5---5--5-| x2

We are not victims
We're someone's enemy
We all have to blame someone
Because fault is never personal

This is the town I live in
It is an American tension
Nature's predators live through death
Your neighbor killed big brother

C |----------------------------|
G |----------------------------|
D#|----------------------------|
A#|-3--------------------------|
F |-3--------------------------|
A#|-3--------------------------| 
    Let ring
Добавлено: 02.04.2012
Другие материалы по этой песне:

Страница создана 02.04.2012
http://primanota.ru/kylesa/natures-predators-chords.htm
Привет, Гость.
Предлагаем пройти революционный курс по гитаре.
Подарок от PrimaNota.Ru, забирай!