PrimaNota.ru - самый крупный в мире бесплатный архив песенных текстов, аккордов, табулатур и нот


Kyle Gass Band - Manchild - таба, видео

Регистрация Запомнить меня
Войти через:  Facebook Google Twitter Vk Yandex Mail.ru

Kyle Gass Band - Manchild - таба, видео

Печатать
Просмотров: 138
Song: Manchild
Band : Kyle Gass Band
Tuning: Standard
Tabs: Paz Zionit


INTRO:

I'm a manchild...:

-------------------------------------------------------------------------------------
-------------------------------------------------------------------------------------
-------------------------------------------------------------------------------------
----7-7--------------3---------------------------------------------------------------
----5-5----5--3---------5-3-5----5-3-5-3--------5-3----------------------------------
-----------------5------------------------5--3--3-1----------------------------------

-------------------------------------------------------------------------------------
-------------------------------------------------------------------------------------
-------------------------------------------------------------------------------------
----7-7--------------3---------------------------------------------------------------
----5-5----5--3---------5-3-5----5-3-5-3--------3-5----------------------------------
-----------------5------------------------5--3--1-3----------------------------------


I've should have grown up by now...:

D - C - F - G Major


I dont know what to do...:

D - C - F - G Major - A Major


I'm a manchild, and I really must confess...

-------------------------------------------------------------------------------------
-------------------------------------------------------------------------------------
-------------------------------------------------------------------------------------
----7-7--------------3---------------------------------------------------------------
----5-5----5--3---------5-3-5----5-3-5-3--------5-3----------------------------------
-----------------5------------------------5--3--3-1----------------------------------

-------------------------------------------------------------------------------------
-------------------------------------------------------------------------------------
-------------------------------------------------------------------------------------
----7-7--------------3---------------------------------------------------------------
----5-5----5--3---------5-3-5----5-3-5-3--------3-5----------------------------------
-----------------5------------------------5--3--1-3----------------------------------
Добавлено: 17.06.2015
Вам также может быть интересно:
Другие материалы по этой песне:
  • Аккорды и текст

Страница создана 17.06.2015
http://primanota.ru/kyle-gass-band/manchild-chords.htm
Привет, Гость.
Предлагаем пройти революционный курс по гитаре.
Подарок от PrimaNota.Ru, забирай!